Notificações Amigos pendentes

      Kansas

      Carry On Wayward Son

      250.560 exibições
      Tom: A
      Intro:
      
      
      E|----------------------------------------------------------------|
      B|----------------------------------------------------------------|
      G|----------------------------------------------------------------|
      D|------------------------------5---------------------------------| (2x)
      A|-----------3-----------5--5/7----7--5-----5-----5---------------|
      E|--5--3--5-----5--3--5------------------8-----3-----2------------|
      
      
      E|----------------------------------------------------------------|
      B|----------------------------------------------------------------|
      G|--------12-12~~-----------------------14-12~~-------------------|
      D|--------12-12~~------2-0-5p0-2---------14-12~~------2-0-5p0-2---| (2x)
      A|---2-2------------0h2-----------2-2-------------0h2-------------|
      E|---0-0--------------------------0-0-----------------------------|
      
      
      Solo 1:
      
      (guitarra 1)
      
      E|----------------------------------------------|
      B|----------------------------------------------|
      G|----------------------------------------------|
      D|-----------------------5----------------------| (2x)
      A|---------3--------5-/7---7p5-3--5---5---------|
      E|---5-3-5----5-3-5-----------------3---2-------|
      
      
      E|-------------------------------------------------|
      B|-------------------------------------------------|
      G|--------12-12------------------14-12-------------|
      D|--------12-12----0-5h0-2-------14-12----0-5p0-2--|x2
      A|---2-2-------0h2----------2-2-------0h2----------|
      E|---0-0--------------------0-0--------------------|
      
      
      E|-----------------|
      B|-----------------|
      G|-----------------|
      D|-2-X-X-----------|
      A|-0-X-X-5-X-X-3~~-|
      E|-------3-X-X-1~~-|
      
      
      (guitarra 2)
      
      E|--------------------------------------------------------------------|
      B|--------------------------------------------------------------------|
      G|-5~-7^(half)--5--------------2-5p2p0-5p2p0-5p2p0-5p2p0--------------|
      D|-5~------------7p5--------------------------------------------------|
      A|-------------------7p6p5/3-5v---------------------------------------|
      E|--------------------------------------------------------------------|
      
      
      E|--------------------------17------17------20p17---17----------------|
      B|--------------------17-20---20p17---20p17------20---20p17-16-15-13--|
      G|-5p2p0-5p2p0-5-/17v-------------------------------------------------|
      D|--------------------------------------------------------------------|
      A|--------------------------------------------------------------------|
      E|--------------------------------------------------------------------|
      
      
      E|--------------------------------|--22^-22^-|-22^-22^--|------------5-|
      B|-----10p8--10p8--8--------------|----------|----------|5---5-8-5-8-5-|
      G|--/9-----9-----9---9-7-5h7-5v---|----------|----------|5-5-5-7-5-7---|
      D|--------------------------------|----------|----------|--7-----------|
      A|--------------------------------|----------|----------|--------------|
      E|--------------------------------|----------|----------|--------------|
      
      
      Verso:
      
              Am           G           F           G
      E|-----------|-----------|-----------|-----------|
      B|----5---5--|----3---3--|----1---1--|----3---3--|
      G|------5----|------4----|------2----|------4----|
      D|--7--------|--5--------|--3--------|--5--------| (2x)
      A|-----------|-----------|-----------|-----------|
      E|-----------|-----------|-----------|-----------|
      
      
              Dm           C           Bb       Bb    C
      E|-----------|-----------|-----------|-1---|-3---|
      B|--6--------|--5--------|--3--------|---3-|---5-|
      G|----7---7--|----5---5--|----3---3--|-----|-----|
      D|------7----|------5----|------3----|-----|-----|
      A|-----------|-----------|-----------|-----|-----|
      E|-----------|-----------|-----------|-----|-----|
      
      
              Dm           C           G
      E|--5--------|-----------|--3-------3--|
      B|----6---6--|--5--------|----3---3----|
      G|------7----|----5---5--|------4------|
      D|-----------|------5----|-------------|
      A|-----------|-----------|-------------|
      E|-----------|-----------|-------------|
      
      Once I rose above the noise and confusion
      Just to get a glimpse beyond this illusion
      I was soaring ever higher
      But I flew too high
      
      Refrão:
      
      E|---5-----3--1-----|
      B|---5--5--3--1-----|
      G|---5--5--4--2-----|
      D|---7--5--5--3-----| (3x)
      A|---7--3--5--3-----|
      E|---5-----3--1-----|
      
      
      Interlúdio:
      
      E|----------------------------------------------|
      B|----------------------------------------------|
      G|----------------------------------------------|
      D|-----------------------5----------------------| (2x)
      A|---------3--------5-/7---7p5-3--5---5---------|
      E|---5-3-5----5-3-5-----------------3---2-------|
      
      
      Verso:
      
              Am           G           F           G
      E|-----------|-----------|-----------|-----------|
      B|----5---5--|----3---3--|----1---1--|----3---3--|
      G|------5----|------4----|------2----|------4----|
      D|--7--------|--5--------|--3--------|--5--------| (2x)
      A|-----------|-----------|-----------|-----------|
      E|-----------|-----------|-----------|-----------|
      
      
              Dm           C           Bb       Bb    C
      E|-----------|-----------|-----------|-1---|-3---|
      B|--6--------|--5-----5--|--3--------|---3-|---5-|
      G|----7---7--|----5------|----3---3--|-----|-----|
      D|------7----|------5----|------3----|-----|-----|
      A|-----------|-----------|-----------|-----|-----|
      E|-----------|-----------|-----------|-----|-----|
      
      
              Dm           C               G
      E|--5--------|-----------|--3-------3-5-7--|
      B|----6---6--|--5--------|----3---3--------|
      G|------7----|----5---5--|------4----------|
      D|-----------|------5----|-----------------|
      A|-----------|-----------|-----------------|
      E|-----------|-----------|-----------------|
      
      
              Am           G           F           G
      E|-----------|-----------|-----------|-----------|
      B|----5---5--|----3---3--|----1---1--|----3---3--|
      G|------5----|------4----|------2----|------4----|
      D|--7--------|--5--------|--3--------|--5--------| (2x)
      A|-----------|-----------|-----------|-----------|
      E|-----------|-----------|-----------|-----------|
      
      
              Dm           C           Bb       Bb    C
      E|-----------|-----------|-----------|-1---|-3---|
      B|--6--------|--5-----5--|--3--------|---3-|---5-|
      G|----7---7--|----5------|----3---3--|-----|-----|
      D|------7----|------5----|------3----|-----|-----|
      A|-----------|-----------|-----------|-----|-----|
      E|-----------|-----------|-----------|-----|-----|
      
      
              Dm           C               G
      E|--5--------|-----------|--3-------3------|
      B|----6---6--|--5--------|----3---3---3----|
      G|------7----|----5---5--|------4-------4--|
      D|-----------|------5----|-----------------|
      A|-----------|-----------|-----------------|
      E|-----------|-----------|-----------------|
      
      
      (Refrão)
      
      Ponte:
      (guitarra 1)
      
      E|-------------------------------------------------------------|
      B|-------------------------------------------------------------|
      G|----2p0---------------------------2p0------------------------|
      D|--------2p0---------------7-5---------2p0---------------7~---| (2x)
      A|--0---------3p0-3-5-------5-3---0---------3p0-3-5-------5~---|
      E|---------------------3-5---------------------------3-5-------|
      
      
      E|------------------------|--------------------------|
      B|------------------------|--------------------------|
      G|------------------------|--------------------------|
      D|----9-7-6-4-2---9-12----|---9-7-6-4----------------|
      A|----7-5-4-2-0-5-7-10----|---7-5-4-2--5-------3-----|
      E|--0-----------3---------|-0------------2-3-5-------|
      
      
      E|-------------------------------------------------------------|
      B|-------------------------------------------------------------|
      G|----2p0---------------------------2p0------------------------|
      D|--------2p0---------------7-5---------2p0---------------7~---| (2x)
      A|--0---------3p0-3-5-------5-3---0---------3p0-3-5-------5~---|
      E|---------------------3-5---------------------------3-5-------|
      
      
      E|------------------------|--------------------------|
      B|------------------------|--------------------------|
      G|------------------------|--------------------------|
      D|----9-7-6-4-2---9-12----|---9-7-6-4----------------|
      A|----7-5-4-2-0-5-7-10----|---7-5-4-2--5-------3-----|
      E|--0-----------3---------|-0------------2-3-5-------|
      
      
      E|----------------------------------------------|
      B|----------------------------------------------|
      G|----------------------------------------------|
      D|-----------------------5----------------------| (2x)
      A|---------3--------5-/7---7p5-3--5---5---------|
      E|---5-3-5----5-3-5-----------------3---2-------|
      
      
      (guitarra 2)
      
      E|---17-15-14-12-10--7h10p7-------------------------------------------|
      B|-------------------------10-8*-10-10p8---8------8*h10---8*-10*---8--|
      G|---------------------------------------9-7---9--------9--------9----|
      D|--------------------------------------------------------------------|
      A|--------------------------------------------------------------------|
      E|--------------------------------------------------------------------|
      
      
      E|-----------------|
      B|--------------8--|
      G|--9-8-7-------7--|
      D|--------9-8-7----|
      A|-----------------|
      E|-----------------|
      
      
      Refrão:
      (guitarra 2)
      
      E|-------------------------------------------------------|
      B|-------------------------------------------------------|
      G|-------------------------------------------------------|
      D|---7-7---5--3~-------------7-7---5--3~-----------------|
      A|---7-7---5--3~-------------7-7---5--3~-----------------|
      E|---5-5---3--1~-------------5-5---3--1~-----------------|
      
      
      E|------------------------------------------------------------|
      B|------------------------------------------------------------|
      G|---7~-7~---5~-5~---3~-3~--3-3-5-5---7~-7~---5~-5~--4-4-4-4~-|
      D|---7~-7~---5~-5~---3~-3~--3-3-5-5---7~-7~---5~-5~--5-5-5-5~-|
      A|---5~-5~---3~-3~---1~-1~--1-1-3-3---5~-5~---3~-3~--5-5-5-5~-|
      E|---------------------------------------------------3-3-3-3~-|
      
      
      (guitarra 1)
      
      E|-------------------------------------------------------|
      B|-------------------------------------------------------|
      G|-------------------------------------------------------|
      D|---7-7---5--3~-------------7-7---5--3~-----------------|
      A|---7-7---5--3~------0--3---7-7---5--3~---------3-5-----|
      E|---5-5---3--1~--1h3-----3--5-5---3--1~--1-3-/5---------|
      
      
      E|-------------------------------------------------------------|
      B|-------------------------------------------------------------|
      G|-----7----5----3-----5-----7----5--4-4-4-4~------------------|
      D|----7-7--5-5--3-3--3--5---7-7--5---5-5-5-5~------------------|
      A|---5----3----1----1------5----3----5-5-5-5~------------------|
      E|-----------------------------------3-3-3-3~------------------|
      
      
      Interlúdio 2:
      
      E|-------------------------------------------------|
      B|-------------------------------------------------|
      G|--------12-12------------------14-12-------------|
      D|--------12-12----0-5h0-2-------14-12----0-5p0-2--| (2x)
      A|---2-2-------0h2----------2-2-------0h2----------|
      E|---0-0--------------------0-0--------------------|
      
      
      Solo 2:
      (guitarra 1)
      
      E|---------------------------------|
      B|---------------------------------|
      G|---------------------2-2---------|
      D|--4-4-4p2--4-4-4p2---2-2--2-2----| (4x)
      A|---------4--------4--0-0--2-2----|
      E|--------------------------0-0----|
      
      
      (guitarra 2)
      
      E|------------------------------------------------------17^-----|
      B|---17^-17^rp14------------------17p14-17-17^v---17p14---------|
      G|----------------16p14-16p14vvv--------------------------------|
      D|--------------------------------------------------------------|
      A|--------------------------------------------------------------|
      E|--------------------------------------------------------------|
      
      
      E|--18^-17^r-14h17p14-14p12---14p12-----------------------------|
      B|-------------------------14-----------------------------------|
      G|----------------------------------14-11-----------------------|
      D|-------------------------------------------7h9-9^(11)r--9~----|
      A|-----------------------------------------9--------------------|
      E|--------------------------------------------------------------|
      
      
      E|------------------------------|
      B|------------------------------|
      G|-----6h9-6h9-9-6h9-6h9--------|
      D|---7------------------9--7----|
      A|------------------------------|
      E|------------------------------|
      
      
      Interlúdio 3:
      (guitarra 1)
      
      E|-------------------------------------------------|
      B|-------------------------------------------------|
      G|--------12-12------------------14-12-------------|
      D|--------12-12----0-5h0-2-------14-12----0-5p0-2--|
      A|-------------0h2----------2-2-------0h2----------|
      E|--------------------------0-0--------------------|
      
      
      E|-------------------------------------------------|
      B|-------------------------------------------------|
      G|--------12-12------------------14-12-------------|
      D|--------12-12----0-5h0-2-------14-12----0-5p0-2--|
      A|---2-2-------0h2----------2-2-------0h2----------|
      E|---0-0--------------------0-0--------------------|
      
      
      (guitarra 2)
      
      E|--22^-22^-|-22^-22^--|
      B|----------|----------|
      G|----------|----------|
      D|----------|----------|
      A|----------|----------|
      E|----------|----------|
      
      
      Outro Solo:
      (guitarra 1)
      
      E|---------------------------------|
      B|---------------------------------|
      G|---------------------2-2---------|
      D|--4-4-4p2--4-4-4p2---2-2--2-2----| (4x)
      A|---------4--------4--0-0--2-2----|
      E|--------------------------0-0----|
      
      
      (guitarra 2)
      
      E|-----------------------------------------------------------------|
      B|-----------------------------------------------------------------|
      G|--------------6h9p6h9p6h9p6h9p6h9p6h9p6h9p6h9-6------------------|
      D|--^9r---7-9^------------------------------------9-7-9-7---7^/----|
      A|--------------------------------------------------------9--------|
      E|-----------------------------------------------------------------|
      
      
      E|-----12~-------------------17^-17--14-------14-------------------|
      B|--14~----14/12-10-12vvv---------------17p14----17-17-------------|
      G|--14~-------------------14---------------------------14----------|
      D|-----------------------------------------------------------------|
      A|-----------------------------------------------------------------|
      E|-----------------------------------------------------------------|
      
      
      Outro:
      (guitarra 1)
      
      E|-----------------|
      B|-----------------|
      G|-----------------|
      D|-2-X-X-----------|
      A|-0-X-X-5-X-X-3~~-|
      E|-------3-X-X-1~~-|
      
      
      Outro:
      (guitarra 2)
      
      E|--------------5--|
      B|--5---5-8-5-8-5--|
      G|--5-5-5-7-5-7----|
      D|----7------------|
      A|-----------------|
      E|-----------------|
      
        Composição: Don Kirshner / Kerry LivgrenColaboração e revisão:
        • Antoine
        • kilu
        • dragoni
        • andreblasques
        • lucasvinicius de oliveira
        • +1

        Comentários 84

        140 .
        • marcos marcos: Em 05/09/2016 20:34

          musica foda do crlho

        • uilson uilson: Em 03/09/2016 19:23

          video aula

        • felipe felipe: Em 14/08/2016 22:04

          faz a video aula please...

        • andrey andrey: Em 07/08/2016 22:50

          Por favor gente, faz um vídeo aula dessa música, tende piedade da gente, faz um vídeo aula aí!

        • guilherme guilherme: Em 01/06/2016 17:01

          pooorrraaaa...
          vou pegar de ouvido q e mehor q tentar ler isso aii

        • Kenedy Kenedy: Em 09/05/2016 22:23

          VÍDEO AULA !!!!!!!!!!11111

        • Paulo Paulo: Em 07/05/2016 20:20

          vídeo aula pfv

        • lucas.huller2 lucas.huller2: Em 23/04/2016 01:10

          cara, eles fizeram pra dificultar

        • Cainan Cainan: Em 02/03/2016 19:54

          AAAh bom, vim aqui pensando q ja tinha a video aula :/

        • jean.froes.73 jean.froes.73: Em 14/01/2016 23:37

          Video Aulaaaaaaaaa plz

        140 cancelar

        conseguiu tocar?

        • •••

        covers

        Grave um vídeo tocando Carry On Wayward Son e mande pra gente!

        Ex.: http://www.youtube.com/watch?v=0IvSvIwGdwk
        ver covers de outras músicas »
        0:00 / 0:00

        Capítulos

          1 versão de baixo exibições contribuição e correção
          1 versão de bateria exibições contribuição e correção
          1 versão de gaita exibições contribuição e correção
          3 versões de Guitar Proformatodownloadscontribuição
          1 versão de partiturasformatodownloadscontribuição
          play/pausefechar subir/descer velocidade
          6ª corda E5ª corda A4ª corda D3ª corda G2ª corda B1ª corda E
            acordes
            publicidade
            fechar
            ok