Cifra Club

Carry On Wayward Son

Kansas

Cifra: Principal
exibições 292.396
Tom: C
Introdução:

Carry on, my wayward son
There'll be peace when you are done
Lay your weary head to rest
Don't you cry no more

(Guitarra Base 1)

E|-----------------------------------------------------|
B|-----------------------------------------------------|
G|-----------------------------------------------------|  (2x)
D|-------------------------5---------------------------|
A|-------3~-------5~--5/7-----7-5-3--5----5------------|
E|-5-3-5----5-3-5----------------------3~---2~---------|

E|-----------------------------------------------------|
B|-----------------------------------------------------|
G|-------/9-9~-----------------------------------------|
D|-2-2---/9-9~--------5--------------------------------|
A|-2-2--------------5---5-7----------------------------|
E|-0-0----------5-7------------------------------------|

E|-----------------------------------------------------|
B|-----------------------------------------------------|
G|-------/9-9~-----------------------------------------|  (3x)
D|-------/9-9~--------5--------------------------------|
A|------------------5---5-7----------------------------|
E|-0-0----------5-7------------------------------------|

E|-----------------------------------------------------|
B|-----------------------------------------------------|
G|-----------------------------------------------------|  (2x)
D|-------------------------5---------------------------|
A|-------3~-------5~--5/7-----7-5-3--5----5------------|
E|-5-3-5----5-3-5----------------------3~---2~---------|

E|-----------------------------------------------------|
B|-----------------------------------------------------|
G|-------/9-9~-----------------------------------------|
D|-2-2---/9-9~--------5--------------------------------|
A|-2-2--------------5---5-7----------------------------|
E|-0-0----------5-7------------------------------------|

E|-----------------------------------------------------|
B|-----------------------------------------------------|
G|-------/9-9~-----------------------------------------| 
D|-------/9-9~--------5--------------------------------|
A|------------------5---5-7----------------------------|
E|-0-0----------5-7------------------------------------|

E|-----------------------------------------------------|
B|-----------------------------------------------------|
G|-----------------------------------------------------|
D|-------------3---------------------------------------|
A|-------------3---------------------------------------|
E|-5-0-5-3-0-3-1---------------------------------------|

(Guitarra Base 2)

E|-----------------------------------------------------|
B|-----------------------------------------------------|
G|-----------------------------------------------------|  (2x)
D|-------------------------5---------------------------|
A|-------3~-------5~--5/7-----7-5-3--5----5------------|
E|-5-3-5----5-3-5----------------------3~---2~---------|

E|-----------------------------------------------------|
B|-----------------------------------------------------|
G|-------/12-12~~--------------------------------------|
D|-2-2---/12-12~~--------------------------------------|
A|-2-2-------------------------------------------------|
E|-0-0-------------------------------------------------|

E|-----------------------------------------------------|
B|-----------------------------------------------------|
G|-------/14-12~~--------------------------------------|
D|-2-2---/14-12~~--------------------------------------|
A|-2-2-------------------------------------------------|
E|-0-0-------------------------------------------------|

E|-----------------------------------------------------|
B|-----------------------------------------------------|
G|-------/12-12~~--------------------------------------|
D|-2-2---/12-12~~--------------------------------------|
A|-2-2-------------------------------------------------|
E|-0-0-------------------------------------------------|

E|-----------------------------------------------------|
B|-----------------------------------------------------|
G|-------/14-12~~--------------------------------------|
D|-2-2---/14-12~~--------------------------------------|
A|-2-2-------------------------------------------------|
E|-0-0-------------------------------------------------|

E|-----------------------------------------------------|
B|-----------------------------------------------------|
G|-----------------------------------------------------|  (2x)
D|-------------------------5---------------------------|
A|-------3~-------5~--5/7-----7-5-3--5----5------------|
E|-5-3-5----5-3-5----------------------3~---2~---------|

E|-----------------------------------------------------|
B|-----------------------------------------------------|
G|-------/12-12~~--------------------------------------|
D|-2-2---/12-12~~--------------------------------------|
A|-2-2-------------------------------------------------|
E|-0-0-------------------------------------------------|

E|-----------------------------------------------------|
B|-----------------------------------------------------|
G|-------/14-12~~--------------------------------------|
D|-2-2---/14-12~~--------------------------------------|
A|-2-2-------------------------------------------------|
E|-0-0-------------------------------------------------|

E|-----------------------------------------------------|
B|-10---10-12-10-12-12b13~-----------------------------|
G|----9------------------------------------------------|
D|-----------------------------------------------------|
A|-----------------------------------------------------|
E|-----------------------------------------------------|

(Guitarra Solo)

E|-----------------------------------------------------|
B|-5b--------------------------------------------------|
G|-5b---7b--5~-----------------------------------------|
D|--------------7p5------------------------------------|
A|------------------7-6-5\3-5~-------------------------|
E|-----------------------------------------------------|

E|-----------------------------------------------------|
B|-----------------------------------------------------|
G|-x\-0h5p2p0h5p2p.../17~------------------------------|
D|-----------------------------------------------------|
A|-----------------------------------------------------|
E|-----------------------------------------------------|

E|----------17-------17-------20p17----17--------------|
B|-------17----20p17----20p17-------17----20p17--------|
G|-19b21----------------------------------------20-19--|
D|-----------------------------------------------------|
A|-----------------------------------------------------|
E|-----------------------------------------------------|

E|-------------------5-----5---------------------------|
B|-----------------5---8p5---8p5-----------------------|
G|-17-19-17~---7b9---------------8-7-5-7-5~------------|
D|-----------------------------------------------------|
A|-----------------------------------------------------|
E|-----------------------------------------------------|

E|--------22b24-22b24~----------22b24-22b24~-----------|
B|-----------------------------------------------------|
G|-----------------------------------------------------|
D|-----------------------------------------------------|
A|-----------------------------------------------------|
E|-0-0-------------------0-0---------------------------|

E|-----------------------------------------------------|
B|-5---5-8-5-8-8b10~-----------------------------------|
G|---5-------------------------------------------------|
D|-----------------------------------------------------|
A|-----------------------------------------------------|
E|-----------------------------------------------------|


Primeira Parte:

Am          G              F
   Once, I rose above the noise 
        G     Am
And confusion
         G               F
Just to get a glimpse beyond 
        G     Dm
This illusion
       C            Bb    C  Dm
I was soaring ever higher
        C       G
But I flew too high

Am           G
   Though my eyes could see
    F           G       Am
I still was a blind man
           G
Though my mind could think
    F          G      Dm
I still was a mad man
            C                Bb     C  Dm
I hear the voices when I'm dreaming
       C         G
I can hear them say


Primeiro Refrão:

   Am      C       G       F
E|------------------------------------------|
B|------------------------------------------|
G|-----2-------0----------------------------|
D|---2-------2---2-----0-------3------------|
A|-0-----2-3---------2---2---3---3----------|
E|-----------------3-------1----------------|

   Am      C       G
E|------------------------------------------|
B|------------------------------------------|
G|-----2-------0----------------------------|
D|---2-------2---2-----0--------------------|
A|-0-----2-3---------2---2------------------|
E|-----------------3-------3----------------|

   Am      C       G       F
E|------------------------------------------|
B|------------------------------------------|
G|-----2-------0----------------------------|
D|---2-------2---2-----0-------3------------|
A|-0-----2-3---------2---2---3---3----------|
E|-----------------3-------1----------------|

E|------------------------------------------|
B|------------------------------------------|
G|------------------------------------------|
D|-3----------------------------------------|
A|-3----------------------------------------|
E|-1----------------------------------------|

Am       C       G       F  Am
   Carry on, my wayward son
             C          G           Am
There'll be peace when you are done
          C     G       F
Lay your weary head to rest

Don't you cry no more


Interlúdio:

E|-----------------------------------------------------|
B|-----------------------------------------------------|
G|-----------------------------------------------------|  (2x)
D|-------------------------5---------------------------|
A|-------3~-------5~--5/7-----7-5-3--5----5------------|
E|-5-3-5----5-3-5----------------------3~---2~---------|


Segunda Parte:

Am        G           F
   Masquerading as a man 
        G     Am
With a reason
       G
My charade is the 
  F           G     Dm
Event of the season
           C            Bb        C   Dm
And if I claim to be a wise man, well
           C
It surely means 
        G
That I don't know

Am        G            F       G     Am
   On a stormy sea of moving emotion  
         G
Tossed about like 
    F         G     Dm
A ship on the ocean
         C
I set a course 
              Bb     C  Dm
For winds of fortune
       C               G
But I hear the voices say


Segundo Refrão:

Am       C       G       F  Am
   Carry on, my wayward son
             C          G           Am
There'll be peace when you are done
          C     G       F
Lay your weary head to rest

Don't you cry no more


Ponte:

(Guitarra Base 1)

E|-----------------------------------------------------|
B|-----------------------------------------------------|
G|-----------------------------------------------------|
D|----7p5----------------------------------------------|
A|-0------7-5-------5--------5--3~---------------------|
E|------------8-5-8----3--5----------------------------|

E|-----------------------------------------------------|
B|-----------------------------------------------------|
G|-----------------------------------------------------|
D|----7p5----------------------------------------------|
A|-0------7-5-------5--------5~------------------------|
E|------------8-5-8----3--5----------------------------|

E|-----------------------------------------------------|
B|-----------------------------------------------------|
G|-----------------------------------------------------|
D|----7p5----------------------------------------------|
A|-0------7-5-------5--------5--3~---------------------|
E|------------8-5-8----3--5----------------------------|

E|-----------------------------------------------------|
B|-----------------------------------------------------|
G|-----------------------------------------------------|
D|----7p5----------------------------------------------|
A|-0------7-5-------5--------5~------------------------|
E|------------8-5-8----3--5----------------------------|

(Guitarra Base 2)

E|-----------------------------------------------------|
B|-----------------------------------------------------|
G|---------------------------7--5~---------------------|
D|----7p5--------------------7--5~---------------------|
A|-0------7-5-------5----------------------------------|
E|------------8-5-8----3--5----------------------------|

E|-----------------------------------------------------|
B|-----------------------------------------------------|
G|---------------------------7~------------------------|
D|----7p5--------------------7~------------------------|
A|-0------7-5-------5----------------------------------|
E|------------8-5-8----3--5----------------------------|

E|-----------------------------------------------------|
B|-----------------------------------------------------|
G|---------------------------7--5~---------------------|
D|----7p5--------------------7--5~---------------------|
A|-0------7-5-------5----------------------------------|
E|------------8-5-8----3--5----------------------------|

E|-----------------------------------------------------|
B|-----------------------------------------------------|
G|---------------------------7~------------------------|
D|----7p5--------------------7~------------------------|
A|-0------7-5-------5----------------------------------|
E|------------8-5-8----3--5----------------------------|


Solo de Teclado:

E|-----------------------------------------------------|
B|-----------------------------------------------------|
G|-----------------------------------------------------|
D|------------------------5----------------------------|
A|---7--5--4-----------5-------------------------------|
E|-0----------7--5--3----------------------------------|

E|-----------------------------------------------------|
B|-----------------------------------------------------|
G|-----------------------------------------------------|
D|-----------------------------------------------------|
A|---7--5--4----5----------3---------------------------|
E|-0----------7---2--3--4------------------------------|


Ponte:

(Guitarra Base 1)

E|-----------------------------------------------------|
B|-----------------------------------------------------|
G|-----------------------------------------------------|
D|----7p5----------------------------------------------|
A|-0------7-5-------5--------5--3~---------------------|
E|------------8-5-8----3--5----------------------------|

E|-----------------------------------------------------|
B|-----------------------------------------------------|
G|-----------------------------------------------------|
D|----7p5----------------------------------------------|
A|-0------7-5-------5--------5~------------------------|
E|------------8-5-8----3--5----------------------------|

E|-----------------------------------------------------|
B|-----------------------------------------------------|
G|-----------------------------------------------------|
D|----7p5----------------------------------------------|
A|-0------7-5-------5--------5--3~---------------------|
E|------------8-5-8----3--5----------------------------|

E|-----------------------------------------------------|
B|-----------------------------------------------------|
G|-----------------------------------------------------|
D|----7p5----------------------------------------------|
A|-0------7-5-------5--------5~------------------------|
E|------------8-5-8----3--5----------------------------|

(Guitarra Base 2)

E|-----------------------------------------------------|
B|-----------------------------------------------------|
G|---------------------------7--5~---------------------|
D|----7p5--------------------7--5~---------------------|
A|-0------7-5-------5----------------------------------|
E|------------8-5-8----3--5----------------------------|

E|-----------------------------------------------------|
B|-----------------------------------------------------|
G|---------------------------7~------------------------|
D|----7p5--------------------7~------------------------|
A|-0------7-5-------5----------------------------------|
E|------------8-5-8----3--5----------------------------|

E|-----------------------------------------------------|
B|-----------------------------------------------------|
G|---------------------------7--5~---------------------|
D|----7p5--------------------7--5~---------------------|
A|-0------7-5-------5----------------------------------|
E|------------8-5-8----3--5----------------------------|

E|-----------------------------------------------------|
B|-----------------------------------------------------|
G|---------------------------7~------------------------|
D|----7p5--------------------7~------------------------|
A|-0------7-5-------5----------------------------------|
E|------------8-5-8----3--5----------------------------|


Solo de Guitarra:

(Guitarra Base)

E|-----------------------------------------------------|
B|-----------------------------------------------------|
G|-----------------------------------------------------|
D|------------------------5----------------------------|
A|---7--5--4-----------5-------------------------------|
E|-0----------7--5--3----------------------------------|

E|-----------------------------------------------------|
B|-----------------------------------------------------|
G|-----------------------------------------------------|
D|-----------------------------------------------------|
A|---7--5--4----5----------3---------------------------|
E|-0----------7---2--3--4------------------------------|

(Guitarra Solo)

E|-15b17--15--14--12-----------------------------------|
B|--------------------15--12h15p12-------12------------|
G|---------------------------------14-12-12------------|
D|-----------------------------------------------------|
A|-----------------------------------------------------|
E|-----------------------------------------------------|

E|-----------------------------------------------------|
B|-----------------12b---------------------------------|
G|-14--12h14p12----12b---------------------------------|
D|--------------14-------------------------------------|
A|-----------------------------------------------------|
E|-----------------------------------------------------|

E|-----------------------------------------------------|
B|---8h9p8---8-10---8b-----------------12\-------------|
G|-9-------9------9----9-8-7-----------12\-------------|
D|---------------------------9-8-7---------------------|
A|---------------------------------10------------------|
E|-----------------------------------------------------|


Interlúdio:

E|-----------------------------------------------------|
B|-----------------------------------------------------|
G|-----------------------------------------------------|  (2x)
D|-------------------------5---------------------------|
A|-------3~-------5~--5/7-----7-5-3--5----5------------|
E|-5-3-5----5-3-5----------------------3~---2~---------|


Terceiro Refrão:

(Guitarra Base 1)

   A5     G5   F5
E|------------------------------------------|
B|------------------------------------------|
G|-2-2--------------------------------------|
D|-2-2----5----3---3------------------------|
A|-0-0----5----3---3---0-2-3-2--------------|
E|--------3----1---1-3----------------------|

   A5     G5   F5
E|------------------------------------------|
B|------------------------------------------|
G|-2-2--------------------------------------|
D|-2-2----5----3---3------------------------|
A|-0-0----5----3---3---0-2-3-2--------------|
E|--------3----1---1-3----------------------|

   D5      C5      Bb5
E|------------------------------------------|
B|------------------------------------------|
G|-----7-------5-------3---------0----------|
D|---7---7---5---5---3-----0-2-3------------|
A|-5-------3-------1-----3------------------|
E|------------------------------------------|

   D5      C5      G5
E|------------------------------------------|
B|------------------------------------------|
G|-----7-------5----------------------------|
D|---7---7---5---5-5------------------------|
A|-5-------3-------5------------------------|
E|-----------------3------------------------|

(Guitarra Base 2)

   A5     G5   F5
E|------------------------------------------|
B|------------------------------------------|
G|-2-2--------------------------------------|
D|-2-2----5----3---3-------2-0--------------|
A|-0-0----5----3---3-2-3-5------------------|
E|------------------------------------------|

   A5     G5   F5
E|------------------------------------------|
B|------------------------------------------|
G|-2-2--------------------------------------|
D|-2-2----5----3---3-------2----------------|
A|-0-0----5----3---3-2-3-5------------------|
E|------------------------------------------|

   D5      C5      Bb5
E|------------------------------------------|
B|------------------------------------------|
G|-----7-------5-------3---------0----------|
D|---7---7---5---5---3-----0-2-3------------|
A|-5-------3-------1-----3------------------|
E|------------------------------------------|

   D5      C5      G5
E|------------------------------------------|
B|------------------------------------------|
G|-----7-------5----------------------------|
D|---7---7---5---5-5------------------------|
A|-5-------3-------5------------------------|
E|-----------------3------------------------|

A5
   (Carry on) 
 G5      F5              A5
You will always remember

(Carry on) 
 G5     F5                  D5
Nothing equals the splendor

          C5              Bb5   D5
Now your life's no longer empty
        C5           G5
Surely Heaven waits for you

Am       C       G       F  Am
   Carry on, my wayward son
             C          G           Am
There'll be peace when you are done
          C     G       F
Lay your weary head to rest

Don't you cry, don't cry no more 


Interlúdio:

(Guitarra Base 1)

E|-----------------------------------------------------|
B|-----------------------------------------------------|
G|-------/9-9~-----------------------------------------|
D|-2-2---/9-9~--------5--------------------------------|
A|-2-2--------------5---5-7----------------------------|
E|-0-0----------5-7------------------------------------|

E|-----------------------------------------------------|
B|-----------------------------------------------------|
G|-------/9-9~-----------------------------------------|  (3x)
D|-------/9-9~--------5--------------------------------|
A|------------------5---5-7----------------------------|
E|-0-0----------5-7------------------------------------|

(Guitarra Base 2)

E|-----------------------------------------------------|
B|-----------------------------------------------------|
G|-------/12-12~~--------------------------------------|
D|-2-2---/12-12~~--------------------------------------|
A|-2-2-------------------------------------------------|
E|-0-0-------------------------------------------------|

E|-----------------------------------------------------|
B|-----------------------------------------------------|
G|-------/14-12~~--------------------------------------|
D|-2-2---/14-12~~--------------------------------------|
A|-2-2-------------------------------------------------|
E|-0-0-------------------------------------------------|

E|-----------------------------------------------------|
B|-----------------------------------------------------|
G|-------/12-12~~--------------------------------------|
D|-2-2---/12-12~~--------------------------------------|
A|-2-2-------------------------------------------------|
E|-0-0-------------------------------------------------|

E|-----------------------------------------------------|
B|-----------------------------------------------------|
G|-------/14-12~~--------------------------------------|
D|-2-2---/14-12~~--------------------------------------|
A|-2-2-------------------------------------------------|
E|-0-0-------------------------------------------------|


Solo Final 1:

(Guitarra Base)

E|-----------------------------------------------------|
B|-----------------------------------------------------|
G|-------------------------2-2--x----------------------|
D|------4-2--------4-2-----2-2--x----------------------|
A|----------4----------4---0-0----2--------------------|
E|-2--2-------2--2-------2-----------0--0--------------|

(Guitarra Solo)

E|-----------------------------------------------------|
B|-17b19~---17b19r17p14--------------------------------|
G|----------------------16b18-16-14-16-14~-------------|
D|-----------------------------------------------------|
A|-----------------------------------------------------|
E|-----------------------------------------------------|

E|-----------------------------17b19--b19r17--14h17p14~|
B|-17p14-17-17b19~---b19r17-14-------------------------|
G|-----------------------------------------------------|
D|-----------------------------------------------------|
A|-----------------------------------------------------|
E|-----------------------------------------------------|

E|-----------------------------------------------------|
B|-19p17----19-17--------------------------------------|
G|-------16--------------------------------------------|
D|----------------19b-16~------------------------------|
A|-----------------------------------------------------|
E|-----------------------------------------------------|

E|-----------------------------------------------------|
B|----------------------5---5---5--~-------------------|
G|---2-4-4b6-4~---2-4/6---6---6---6~-------------------|
D|-4---------------------------------------------------|
A|-----------------------------------------------------|
E|-----------------------------------------------------|


Interlúdio:

No More

(Guitarra Base 1)

E|-----------------------------------------------------|
B|-----------------------------------------------------|
G|-------/9-9~-----------------------------------------|
D|-2-2---/9-9~--------5--------------------------------|
A|-2-2--------------5---5-7----------------------------|
E|-0-0----------5-7------------------------------------|

E|-----------------------------------------------------|
B|-----------------------------------------------------|
G|-------/9-9~-----------------------------------------|  (3x)
D|-------/9-9~--------5--------------------------------|
A|------------------5---5-7----------------------------|
E|-0-0----------5-7------------------------------------|

(Guitarra Base 2)

E|-----------------------------------------------------|
B|-----------------------------------------------------|
G|-------/12-12~~--------------------------------------|
D|-2-2---/12-12~~--------------------------------------|
A|-2-2-------------------------------------------------|
E|-0-0-------------------------------------------------|

E|-----------------------------------------------------|
B|-----------------------------------------------------|
G|-------/14-12~~--------------------------------------|
D|-2-2---/14-12~~--------------------------------------|
A|-2-2-------------------------------------------------|
E|-0-0-------------------------------------------------|

E|-----------------------------------------------------|
B|-----------------------------------------------------|
G|-------/12-12~~--------------------------------------|
D|-2-2---/12-12~~--------------------------------------|
A|-2-2-------------------------------------------------|
E|-0-0-------------------------------------------------|

E|-----------------------------------------------------|
B|-----------------------------------------------------|
G|-------/14-12~~--------------------------------------|
D|-2-2---/14-12~~--------------------------------------|
A|-2-2-------------------------------------------------|
E|-0-0-------------------------------------------------|


Solo Final 2:

(Guitarra Base)

E|-----------------------------------------------------|
B|-----------------------------------------------------|
G|-------------------------2-2--x----------------------|  (4x)
D|------4-2--------4-2-----2-2--x----------------------|
A|----------4----------4---0-0----2--------------------|
E|-2--2-------2--2-------2-----------0--0--0-----------|

(Guitarra Solo)

E|-----------------------------------------------------|
B|------------------2h5p2h5p2h5p...--------------------|
G|-b6r4----2-4b6~--------------------4b6-4-2-4-2---2/--|
D|-----------------------------------------------4-----|
A|-----------------------------------------------------|
E|-----------------------------------------------------|

E|-----------------------------------------------------|
B|-17-------17-----------------------------------------|
G|-16b18~------b18~r16p14-16~--------------------------|
D|-----------------------------------------------------|
A|-----------------------------------------------------|
E|-----------------------------------------------------|

E|-------17b19--17~---14-------14----------------------|
B|-----------------------17-14----17-17----------------|
G|-16-14--------------------------------14~------------|
D|-----------------------------------------------------|
A|-----------------------------------------------------|
E|-----------------------------------------------------|


Final:

(Guitarra Base 1)

E|-----------------------------------------------------|
B|-----------------------------------------------------|
G|-----------------------------------------------------|
D|-------------3---------------------------------------|
A|-------------3---------------------------------------|
E|-5-0-5-3-0-3-1---------------------------------------|

(Guitarra Base 2)

E|-----------------------------------------------------|
B|-10---10-12-10-12-12b13~-----------------------------|
G|----9------------------------------------------------|
D|-----------------------------------------------------|
A|-----------------------------------------------------|
E|-----------------------------------------------------|

(Guitarra Solo)

E|-----------------------------------------------------|
B|-5---5-8-5-8-8b10~-----------------------------------|
G|---5-------------------------------------------------|
D|-----------------------------------------------------|
A|-----------------------------------------------------|
E|-----------------------------------------------------|
Acordes para:

    0 comentários

      mostrar mais comentários

      Conseguiu tocar?

      39tocaram13ainda não

      Grave um vídeo tocando Carry On Wayward Son e mande pra gente!

      00:00 / 00:00
      outros vídeos desta música
      repetirqualidadeautomática
      Outro vídeos desta música
        00:00 / 00:00
        automática
        OK