Enviar cifraEntrar

Dust In The Wind

Kansas

Cifra: Principal
exibições 1.111.233
Tom: C
Intro: C  C7M  Cadd9  C
       Asus2  Asus4  Am  Asus2
       Cadd9  C  C7M  Cadd9
       Am  Asus2  Asus4  Am  G/B

    C             C7M            Cadd9
E|---------------------------------------------------
B|-1-------1------0-------0-----3-------3------------
G|-----0-------0------0-------0-----0-------0--------
D|---2-------2------2-------2-----2-------2----------
A|-3-----3--------3-----3-------3-----3--------------
E|---------------------------------------------------


    C              Asus2          Asus4
E|---------------------------------------------------
B|-1-------1------0-------0------3-------3-----------
G|-----0-------0------2-------2------2-------2-------
D|---2-------2------2-------2------2-------2---------
A|-3-----3--------0-----0--------0-----0-------------
E|---------------------------------------------------


    Am             Asus2
E|---------------------------------------------------
B|-1-------1------0-------0--------------------------
G|-----2-------2------2-------2----------------------
D|---2-------2------2-------2------------------------
A|-0-----0--------0-----0----------------------------
E|---------------------------------------------------


    Cadd9          C              C7M
E|---------------------------------------------------
B|-3-------3------1-------1------0-------0-----------
G|-----0-------0------0-------0------0-------0-------
D|---2-------2------2-------2------2-------2---------
A|-3-----3--------3-----3--------3-----3-------------
E|---------------------------------------------------


    Cadd9          Am              Asus2
E|---------------------------------------------------
B|-3-------3------1-------1------0-------0-----------
G|-----0-------0------2-------2------2-------2-------
D|---2-------2------2-------2------2-------2---------
A|-3-----3--------0-----0--------0-----0-------------
E|---------------------------------------------------


     Asus4         Am       G/B
E|---------------------------------------------------
B|--3-------3-----1-----1--3-------------------------
G|------2-------2-----2------------------------------
D|----2-------2-----2--------------------------------
A|--0-----0-------0-----0--2-------------------------
E|---------------------------------------------------


Primeira Parte:

    C             G/B            Am
E|---------------------------------------------------
B|-1-------1-----3-------3------1-------1------------
G|-----0-------0-----0-------0------2--------2-------
D|---2-------2-----0-------0------2--------2---------
A|-3-----3-------2-----2--------0-----0--------------
E|---------------------------------------------------


    Am             G             Dm7
E|-------------------------------1--------1----------
B|-1-------1------0-------0-----------1-------1------
G|-----2-------2------0-------0-----2-------2--------
D|---2-------2------0-------0----0------0------------
A|-0-----0-------------------------------------------
E|----------------3-----3----------------------------


    Am                      G/B
E|-0-------------------------------------------------
B|---------1------1-----1--3-------------------------
G|-----2-------2------2------------------------------
D|---2-------2------2--------------------------------
A|-0-----0--------0-----0--2-------------------------
E|---------------------------------------------------


     C    G/B Am     G          Dm7             Am
I close my   eyes,  only for a moment, and the moments
     G/B
gone.
C    G/B  Am      G             Dm7           Am
All my dreams    pass before my eyes, a curiosity

Refrão:

     D9/F#          G              Am
E|---------------------------------------------------
B|--3-------3------0-------0------1-------1----------
G|------2-------2------0-------0------2-------2------
D|----0-------0------0-------0------2-------2--------
A|--------------------------------0-----0------------
E|--2-----2--------3-----3---------------------------


    Am7/G
E|---------------------------------------------------
B|-1-------1-----------------------------------------
G|-----0-------0-------------------------------------
D|---2-------2---------------------------------------
A|---------------------------------------------------
E|-3-----3-------------------------------------------


     D9/F#          G              Am
E|---------------------------------------------------
B|--3-------3------0-------0------0h1-------1--------
G|------2-------2------0-------0--------2-------2----
D|----0-------0------0-------0--------2-------2------
A|--------------------------------0-------0----------
E|--2-----2--------3-----3---------------------------


        G/B
E|---------------------------------------------------
B|-0h1-3---------------------------------------------
G|---------------------------------------------------
D|---------------------------------------------------
A|-0---2---------------------------------------------
E|---------------------------------------------------


D9/F#  G           Am    Am7/G
      Dust in the Wind
D9/F#            G           Am
All They are is dust in the wind

C    G/B  Am      G              Dm7        Am
Same old song,   just a drop of water in an endless
    G/B
sea.
C    G/B  Am    G               Dm7                Am
All we   do   crumbles to the ground though we refuse to see.

D9/F#  G           Am    Am7/G
      Dust in the Wind
D9/F#          G          ( Am9  G6/A  F7M(11+)/A) )
All we are is dust in the wind

(Intro)

 C      G/B  Am
Don't  hang  on.
 G               Dm7          Am              G/B
Nothing lasts forever but the earth and sky.
     C   G/B  Am
It slips away.
G               Dm7           Am
All your money won't another minute buy.

D9/F#  G           Am    Am7/G
      Dust in the Wind
D9/F#          G           Am     Am7/G
All we are is dust in the wind

D9/F#  G           Am    Am7/G
      Dust in the Wind
D9/F#          G            Am
Everything is dust  in the wind.


    Am             Asus2         Asus4
E|---------------------------------------------------
B|-1-------1------0-------0-----3-------3------------
G|-----2-------2------2-------2-----2-------2--------
D|---2-------2------2-------2-----2-------2----------
A|-0-----0--------0-----0-------0-----0--------------
E|---------------------------------------------------


    Am             Asus2          Asus4
E|---------------------------------------------------
B|-1-------1------0-------0------3-------3-----------
G|-----2-------2------2-------2------2-------2-------
D|---2-------2------2-------2------2-------2---------
A|-0-----0--------0-----0--------0-----0-------------
E|---------------------------------------------------


    Am             Asus2
E|---------------------------------------------------
B|-1-------1------0-------0--------------------------
G|-----2-------2------2-------2----------------------
D|---2-------2------2-------2------------------------
A|-0-----0--------0-----0----------------------------
E|---------------------------------------------------


    Asus4          Am             Asus2
E|---------------------------------------------------
B|-3-------3------1-------1------0-------0-----------
G|-----2-------2------2-------2------2-------2-------
D|---2-------2------2-------2------2-------2---------
A|-0-----0--------0-----0--------0-----0-------------
E|---------------------------------------------------


    Asus4          Am             Asus2
E|---------------------------------------------------
B|-3-------3------1-------1------0-------0-----------
G|-----2-------2------2-------2------2-------2-------
D|---2-------2------2-------2------2-------2---------
A|-0-----0--------0-----0--------0-----0-------------
E|---------------------------------------------------

    ...

E|---------------------------------------------------
B|--3-------3-----1----------------------------------
G|------2-------2-----2------------------------------
D|----2-------2-----2--------------------------------
A|--0-----0-------0----------------------------------
E|---------------------------------------------------


Solo:

E|-------------------7-8-10----------------5-7-8-7-5-
B|-5------------8-10-------------------6-8-----------
G|---7-5-4-5-7--------------5-4---4-5----------------
D|------------------------------7--------------------
A|---------------------------------------------------
E|---------------------------------------------------


E|-7-8-7-5---5---------------------------------------
B|---------8---8-5-----------------------------------
G|-----------------7---------------------------------
D|---------------------------------------------------
A|---------------------------------------------------
E|---------------------------------------------------


E|---------------------------------------------------
B|---------------5-6-8-------------------------------
G|-4-5-4---4-5-7-------------------------------------
D|-------7-------------------------------------------
A|---------------------------------------------------
E|---------------------------------------------------


E|---5-----------------------------------------------
B|-8---8-6-8-6-5-6-5---5-----------------------------
G|-------------------7---7-5-7-5-4-------------------
D|---------------------------------7-----------------
A|---------------------------------------------------
E|---------------------------------------------------

E|--------------------------------5------------------
B|---------------5------5-----5-6---8----------------
G|---4-5---4-5-7----5-7---5-7------------------------
D|-7-----7-------------------------------------------
A|---------------------------------------------------
E|---------------------------------------------------


E|---5-----------------------------------------------
B|-8---8-6-8-6-5-6-5---5-----------------------------
G|-------------------7---7-5-7-5-4-------------------
D|---------------------------------7-----------------
A|---------------------------------------------------
E|---------------------------------------------------
  • 1
  • 2
  • 3
  • 4
  • 5
  • 6
  • 7
  • 8
  • 9
  • 10
  • 11
  • 12
    Acordes para:

      0 comentários

        mostrar mais comentários

        Conseguiu tocar?

        197tocaram2ainda não

        Grave um vídeo tocando Dust In The Wind e mande pra gente!

        00:00 / 00:00
        outros vídeos desta música
        repetirqualidadeautomática
        • automática
        Outro vídeos desta música
          Capítulos
          • Início
          • Tocando a música
          • Acordes Introdução e Primeira Parte
          • Tocando Introdução e Primeira Parte
          • Ensinando Introdução (Dedilhado)
          • Ensinando Primeira Parte (Dedilhado)
          • Acordes do Refrão
          • Tocando Refrão e Segunda Parte
          • Ensinando Refrão
          • Acordes da repetição
          • Tocando Repetição - Terceira Parte
          • Ensinando Terceira Parte
          • Ensinando Solo (Parte 1)
          • Ensinando Solo (Parte 2)
          • Encerramento
          00:00 / 00:00
          automática
          • automática
          fecharplay/pause subir/descer velocidade
            acordes
            fechar
            OK
            Feedback