Crack Music

Kanye West

Composição de: Jayceon Taylor / Kanye West
tom: D
ALBUM- LATE REGISTRATION

------------|
------------|
------------|
-------0-2--|
-0-2-3------|
------------|

Thats that crack music nigga

                                     -
-----------|
-----------|       That real black music nigga
----0-2----|
--3--------|
-----------|

-----------------------------|
-----------------------------|
-----------------------------|
------02-532------0-2-532----|
--023-----------3------------|
-----------------------------|

Straight after that to beginning

Please rate these tabs
Página 1 / 1

Letras e título
Acordes e artista

resetar configurações
OK