Cifra Club

I Kissed a Girl

Katy Perry

Tab de baixo: Principal
exibições 1.627
Verso:
G|------------------------------------------------|
D|------------------------------------------------|
A|------------------------555555555555888888777777| (4x)
E|555555555555777777888888------------------------|

Refrão:
G|-------------------------------|
D|-------------------------------|
A|---------------5-5-5-5-8-8-7-7-|
E|5-5-5-5-8-8-8-8----------------|

G|------------------------------|
D|------------------------------|
A|---------------5-5-5-5-8-8-7-7|
E|5-5-5-5-8-8-8-8---------------|

Verso:
G|------------------------------------------------|
D|------------------------------------------------|
A|------------------------555555555555888888777777| (4x)
E|555555555555777777888888------------------------|

Refrão:
G|----------------------------|
D|----------------------------|
A|------------5-5-5-5-8-8-7-7-|
E|-----8-8-8-8----------------|

G|------------------------------|
D|------------------------------|
A|---------------5-5-5-5-8-8-7-7|
E|5-5-5-5-8-8-8-8---------------|

(Ponte)

Refrão:
G|----------------------------|
D|----------------------------|
A|------------5-5-5-5-8-8-7-7-|
E|-----8-8-8-8----------------|

G|------------------------------|
D|------------------------------|
A|---------------5-5-5-5-8-8-7-7|
E|5-5-5-5-8-8-8-8---------------|

0 comentários

    mostrar mais comentários

    Conseguiu tocar?

    2tocaram0ainda não

    Grave um vídeo tocando I Kissed a Girl e mande pra gente!

    00:00 / 00:00
    outros vídeos desta música
    repetirqualidadeautomática
    Outro vídeos desta música
      00:00 / 00:00
      automática
      OK