Cifra Club

Aprenda

Eu Vou Te Buscar

Kauã Henrique

Cifra: Principal (violão e guitarra)
Tom: G
[Intro] Em  C9  G  D/F

Em                            C9
Senhor não sei mais o que fazer 
                G                   D/F
Quero adorar você mas não tenho forças 
                  Em
Para orar e te adorar
                     C9
Preciso de ti senhor 
G                      D/F
Eu preciso de ti Meu Deus 
Em                  C9                   G
Pai vem me incendiar com teu fogo santo 
                    D/F
Deus vem me levantar para ti honrar e te adorar
Em           C9
Vem me abraçar 
G            D/F
Vem me levantar 
Em                  C9
Euuuu te amoooo demais meu senhor 
G                          D/F
Eu vou te buscar até meu último dia 
Em                         C9
Euuuu te amoooo demais meu senhor 
G                          D/F
Eu vou te adorar até meu último dia
Em                         C9
Euuuu te amoooo demais meu senhor 
G                          D/F
Eu vou te louvar até meu último dia
Em                         C9
Euuuu te amoooo demais meu senhor 
G                          D/F
Eu vou te buscar até meu último dia de vida
 
( Em  C9  G  D/F )

[Solo]

E|--------------------------------------------|
B|--0----0--0--0--1--1---1--1-----------------|
G|-----------------------------4--------------|
D|--------------------------------------------|
A|--------------------------------------------|
E|--------------------------------------------|

E|--------------------------------------------|
B|--------------------------------------------|
G|0---0--4-4-0--0--4-4-2-0--------------------|
D|--2--------------------4-5-4-0/2------------|
A|--------------------------------------------|
E|--------------------------------------------|

E|--------------------------------------------|
B|--------------------------------------------|
G|---------4--2--0----------------------------|
D|----2--5---------4--0--2--------------------|
A|--------------------------------------------|
E|--------------------------------------------|

Em                         C9
Euuuu te amoooo demais meu senhor 
G                          D/F
Eu vou te buscar até meu último dia

[Ponte]

Em                          C9
Eu vou te exaltar eternamente 
G                             D/F
Eu vou te louvar eternamente 
Em                          C9
Eu vou te adorar eternamente 
G                     D/F
Meu senhor, meu senhor

[Refrão]

Em                         C9
Euuuu te amoooo demais meu senhor 
G                         D/F
Eu vou te buscar até meu último dia
Em                         C9
Euuuu te amoooo demais meu senhor 
G                         D/F
Eu vou te buscar até meu último dia de vida
Em                            C9
G                             D/F
E eu vou te exaltar até meu último dia de vida

( Em  C9  G  D/F  Em )
Colaboração e revisão:
  • KauãGames _Hk
18 exibições
    • ½ Tom
    • A
    • Bb
    • B
    • C
    • Db
    • D
    • Eb
    • E
    • F
    • F#
    • G
    • Ab
  • Adicionar à lista

    0 comentários

    Mostrar mais comentários

    Conseguiu tocar?

    0 Tocaram 0 Ainda não

    Grave um vídeo tocando Eu Vou Te Buscar e mande pra gente!

    00:00 / 00:00
    outros vídeos desta música
    repetir qualidade Automático
    Outros vídeos desta música
    00:00 / 00:00
    Automático
    OK