Pickin Wildflowers

Keith Anderson

tom: D Afinação: E A D G B E
E|-------------------------------------------------------------------------------|
                            Pinkin Wildflowers - Keith Anderson
Tabbed by:Moi

Tuning:half step down

E|----------3-0------------------------------3-0----------------------------|
B|---------------3p0-------------------------------3p0----------------------|
G|--------------------2-2h4p2p0--------------------------2-2p0-----4--------|
D|-------------------------------2p0----------------------------2-----------|
A|--------------------------------------------------------------------------|
E|--0-3-0-----------------------------0-------------------------------------|

E|-----------3-0-----------------------------------3--3-------3--3----------|
B|-----------------3-0--------0--------------------2--2-------2--2----------|
G|----------------------2-2------2-0----------------------------------------|
D|-------------------------------------2-0----------------------------------|
A|--------------------------------------------------------------------------|
E|-0-3-0-------------------------------------0-------------0----------------|

E|------------3-0-------------------------------3--0------------------------|
B|-----------------3p0----------------------------------3p0-----------------|
G|-----------------------2-2h4p2p0----------------------------2--2p0---4~---|
D|-----------------------------------2p0------------------------------------|
A|--------------------------------------------------------------------------|
E|--0-3-0----------------------------------0--------------------------------|

E|------------0-------------------------------------------------------------|
B|------------0-------------------------------------------------------------|
G|------------------------0--------------2----------------------------------|
D|------------------------0--------------2----------------------------------|
A|-----------------------------------0--------------------------------------|
E|--0--0-------------3------------------------------------------------------|



************************************

| p  Pull-off
| h  Hammer-on
| ~  Vibrato
Página 1 / 1

Letras e título
Acordes e artista

resetar configurações
OK