Notificações Amigos pendentes

      Kelly Patrícia

      Via Sacra

      43.354 exibições
      Tom: G
      Introdução:
      
      
         Em7          D         C         B4 B7
      E|---------------------------------------|
      B|---7-8---7---7------7--8-7-------7-----|
      G|-9---------9----7-9--------9-------9-8-|
      D|-----------------------------10--------|
      A|---------------------------------------|
      E|---------------------------------------|
      
      
          Em7                         D
      E|---------------------------------------|
      B|----------------------------10/12-10---|
      G|----------------------7p9-7----------11|
      D|--------------7-7p9-7------------------|
      A|---7-9-10-9-10-------------------------|
      E|-0-------------------------------------|
      
      
                       C*
      E|----------10--15-14-12-12/10-10-10/8-8-|
      B|-------10------------------------------|
      G|----11---------------------------------|
      D|-12------------------------------------|
      A|---------------------------------------|
      E|---------------------------------------|
      
      
          B7
      E|-7-5-------------------------------------|
      B|-----8-7-5-------------------------------|
      G|-----------7-5-4-------------------------|
      D|-----------------------------------------|
      A|-----------------------------------------|
      E|-----------------------------------------|
      
      
       Em7            D               C
      Senhor, pela Tua paixão, no abandono da Cruz,
                    B4
      Tem piedade de nós!
         Em                           D
      Jesus, pelo sangue jorrado do Teu coração,
                     C            B4
      Pelo Teu sacrifício, misericórdia!
      
       Em         C
      Deus Santo, Deus Forte,
       D4         D      Em
      Deus Imortal e de Poder!
      Em                 Am7
      Nós te adoramos, Te bendizemos,
           D4      D
      Te glorificamos, ó Senhor!
       C         D
      Deus Pai, Vos ofertamos
          C           D
      O Corpo e o Sangue de Cristo,
      Em              D
      Sua Alma e sua Divindade                                                                                            C                      B4
      Em expiação dos nossos pecados.
        Composição: Sta Faustina/José Musse C. L. JereissatiColaboração e revisão:
        • Furby
        • Nicolas
        • fabiochristiano

        Comentários 2

        140 .
        • Gueu Gueu: Em 16/04/2012 12:45

          Muito Linda essa musicaa.......... perfect.... (sem comentários)!!!!

        • jaine_d jaine_d: Em 17/11/2011 22:33

          Linda essa musica! Nossa . perfeita

        140 cancelar

        conseguiu tocar?

        covers

        Grave um vídeo tocando Via Sacra e mande pra gente!

        Ex.: http://www.youtube.com/watch?v=0IvSvIwGdwk
        ver covers de outras músicas »
        0:00 / 0:00

        Capítulos

          1 versão de violão dificuldade exibições contribuição e correção
          1 versão de guitarra dificuldade exibições contribuição e correção
          1 versão de cavaco dificuldade exibições contribuição e correção
          1 versão de teclado dificuldade exibições contribuição e correção
          play/pausefechar subir/descer velocidade
          6ª corda E5ª corda A4ª corda D3ª corda G2ª corda B1ª corda E
            acordes
            publicidade
            fechar
            ok