Cifra Club

Chu-bura

Kelun

Cifra: Principal (violão e guitarra)
exibições 2.630
Tom: C
(intro)

(intro 1 - 4x)
|-------------------------------------|
|-------------------------------------|
|-7-7-7-7-8-8-10-10-7-7-7-7-8-8-12-10-|
|-------------------------------------|
|-5-5-5-5-6-6-8--8--5-5-5-5-6-6-10-8--|
|-------------------------------------|

(verse 2x)
|---------------------------------|
|---------------------------------|
|-7-7-7-7-7-7-7-7-8-8-8-8-8-8-8-8-|
|-8-8-8-8-8-8-8-8-8-8-8-8-8-8-8-8-|
|-6-6-6-6-6-6-6-6-----------------|
|-----------------8-8-8-8-8-8-8-8-|

(verse 2 - 2x)
|-------------------------------------------------------------------|
|-------------------------------------------------------------------|
|-------7-----7-----7-----7-----------------8-----8-----7-----8-----|
|---8-----8-----8-----8-----8---8---8---8-----8-----8-----8-----8---|
|-6---6-----6-----6-----6-----6---6---------------------------------|
|-------------------------------------8---8-----8-----8-----8-----8-|

(interlude 1x)
|-----------------------------------------------------------------|
|-----------------------------------------------------------------|
|---------------------------------5-5-5-5-5-5-5-5-7-7-7-7-7-7-7-7-|
|-6-6-6-6-6-6-6-6-8-8-8-8-8-8-8-8---------------------------------|
|-----------------------------------------------------------------|
|-----------------------------------------------------------------|

|-----------------------------------------------------------------|
|-----------------------------------------------------------------|
|-8-8-8-8-8-8-8-8-10-10-10-10-10-10-10-10-12-12-12-12-12-12-12-12-|
|-----------------------------------------------------------------|
|-----------------------------------------------------------------|
|-----------------------------------------------------------------|

|---------------------|
|---------------------|
|-10-10-10-10-8-8-8-8-|
|---------------------|
|---------------------|
|---------------------|

(refrão 2x)
|------------------------------------------------------------------|
|------------------------------------------------------------------|
|-8-8-8-8-8-8-8-8--3-3-3-3-3-3-3-3--5-5-5---5-5-5---5-5-5---5-5-7--|
|-8-8-8-8-8-8-8-8--5-5-5-5-5-5-5-5--6-6-6---6-6-6---6-6-6---6-6-8--|
|-6-6-6-6-6-6-6-6--6-6-6-6-6-6-6-6--6-6-6---6-6-6---6-6-6---6-6-8--|
|-----------------------------------4-4-4---4-4-4---4-4-4---4-4-6--|

(refrão 2 - 1x)
|----------------------------------------------|
|----------------------------------------------|
|-8-8-8-8-8-8-8-8-5-5-5-5-7-7-7-7--8-8-8-8-7-~-|
|-8-8-8-8-8-8-8-8-6-6-6-6-8-8-8-8--8-8-8-8-8-~-|
|-6-6-6-6-6-6-6-6-6-6-6-6-8-8-8-8--6-6-6-6-8-~-|
|-----------------4-4-4-4-6-6-6-6----------6-~-|

(intro 2x)
(verse 2x)
(verse 2 - 2x)
(interlude 1x)
(refrão 2x)
(refrão 2 - 1x)

(refrão 3)
|-----------------------------------------------------|
|-----------------------------------------------------|
|-8-~--3-~--5-5-5---5-5-5---5-5-5---5-5-7-------------|
|-8-~--5-~--6-6-6---6-6-6---6-6-6---6-6-8-------------|
|-6-~--6-~--6-6-6---6-6-6---6-6-6---6-6-8-------------|
|-----------4-4-4---4-4-4---4-4-4---4-4-6-------------|

(refrão 1x)

(bridge)
|--------------------------|
|--------------------------|
|-5--3------5--8-----------|
|-5--3--6-~-5--8--6-~------|
|-3--1--6-~-3--6--6-~------|
|-------4-~-------4-~------|

|-------------------------------------------|
|-------------------------------------------|
|-5-8------------------5-8------------------|
|-5-8-6-6-6-6-6-6-6-6--5-8-6-6-8-8-8-8-8-8--|
|-3-6-6-6-6-6-6-6-6-6--3-6-6-6-8-8-8-8-8-8--|
|-----4-4-4-4-4-4-4-4------4-4-6-6-6-6-6-6--|

|---------------------------------|
|-----11---------4--4-----6--6----|
|-8-~----10----5-~5--5--7-~7--7---|
|-8-~-------10-6-~-6--6-8-~-8--8--|
|-6-~----------6-~------8-~-------|
|--------------4-~------6-~-------|

|--------------------------------------------|
|--------------------------------------------|
|-8-~--3-~--5-~--5-~--5-~--5-~-7-------------|
|-8-~--5-~--6-~--6-~--6-~--6-~-8-------------|
|-6-~--6-~--6-~--6-~--6-~--6-~-8-------------|
|-----------4-~--4-~--4-~--4-~-6-------------|

|--------------------------------------------|
|--------------------------------------------|
|-8-~--3-~--5-5----5-5----5-5----5-5-7-------|
|-8-~--5-~--6-6----6-6----6-6----6-6-8-------|
|-6-~--6-~--6-6----6-6----6-6----6-6-8-------|
|-----------4-4----4-4----4-4----4-4-6-------|

(refrão 2x)

|------------------------------------------------------------------|
|------------------------------------------------------------------|
|-8-8-8-8-8-8-8-8--3-3-3-3-3-3-3-3--5-5-5---5-5-5---5-5-5---5-5-7--|
|-8-8-8-8-8-8-8-8--5-5-5-5-5-5-5-5--6-6-6---6-6-6---6-6-6---6-6-8--|
|-6-6-6-6-6-6-6-6--6-6-6-6-6-6-6-6--6-6-6---6-6-6---6-6-6---6-6-8--|
|-----------------------------------4-4-4---4-4-4---4-4-4---4-4-6--|

(refrão 4)
|----------------------------------------------------------------------|
|----------------------------------------------------------------------|
|-8-8-8-8-8-8-8-8--3-3-3-3-3-3-3-3--5-5-5-5-5-5-5-5-5-5-5-7-10-12-15-~-|
|-8-8-8-8-8-8-8-8--5-5-5-5-5-5-5-5--6-6-6-6-6-6-6-6-6-6-6-8------------|
|-6-6-6-6-6-6-6-6--6-6-6-6-6-6-6-6--6-6-6-6-6-6-6-6-6-6-6-8-8--10-13-~-|
|-----------------------------------4-4-4-4-4-4-4-4-4-4-4-6------------|

|---------------------|
|---------------------|
|-8-8-8-8-8-8-8-8-3-~-|
|-8-8-8-8-8-8-8-8-5-~-|
|-6-6-6-6-6-6-6-6-6-~-|
|---------------------|

(intro 2x)
|-----------------------------------------------|
|-----------------------------------------------|
|-7-7-7-7-8-8-10-10-7-7-7-7-8-8-12-10-|
|-----------------------------------------------|
|-5-5-5-5-6-6-8--8--5-5-5-5-6-6-10-8---|
|-----------------------------------------------|

(outro 2x)
|-----------------------------------------------|
|-----------------------------------------------|
|-7-7-7-7-8-8-10-10-7-7-7-7-8-8-12-12-|
|-----------------------------------------------|
|-5-5-5-5-6-6-8--8--5-5-5-5-6-6-10-10--|
|-----------------------------------------------|
Acordes para:
    Colaboração e revisão:
    • Jhazzier Restrepo

    0 comentários

    mostrar mais comentários

    Conseguiu tocar?

    0tocaram0ainda não

    Grave um vídeo tocando Chu-bura e mande pra gente!

    00:00 / 00:00
    outros vídeos desta música
    repetirqualidadeAutomático
    Outro vídeos desta música
      00:00 / 00:00
      OK