Glider

Kent

Composição de: Chris Gordon / Joakim Berg
tom: A Afinação: E A D G B E
E|--------------------------------------------------------|
  Kent - Isola - Glider (1997)
E|-------------------------------------------------------|
 

  Standard tuning

  t: thumb
  m: Middle-finger
  r: Ring-finger
  i: Index
  p: Pinky 

  d: Strum down
  u: Strum up

  00:13

    t    p   i     p
 ||-----------------------||
 ||-----------------------||
 ||-----------2-----------||
 ||-----0--------0-----0--|| x 5
 ||--------4--------4-----||
 ||--2--------------------||

        m  p  i             p  r     i
E|----------------------------------------------|
B|----------------------------------2-----------|
G|-----------1----------------------------------|
D|-----2--------2-----2-------4--------4-----4--|
A|--------4--------4-----4s5-----5--------5-----|
E|--0-------------------------------------------|

    p  r  p  i  i        i  p     m  r
E|----------------------------------------------|
B|-----------2--------------------3-------------|
G|--------------1-----1--------------4----------|
D|-----4--------------------4-----------4-------|
A|--4-----4--------4-----2-----2-----------2----|
E|----------------------------------------------|

       m  r  i
E|-----------------------| |-----------------------||
B|-----------------------| |-----------------------||
G|-----------1-----------| |-----------2-----------||
D|-----2--------2-----2--| |-----0--------0-----0--|| x 3
A|--------2--------2-----| |--------4--------4-----||
E|--0--------------------| |--2--------------------||

 Play the verse one more time. At the end of the second verse
 only play the F# chord twice before entering the chorus.

 Chorus 01:13

    d  d  u  u  d  d  d  u  u  d  d  d  u  u  d
 ||--2--2--2--2--2-----------------4--4--4--4--4--|
 ||--2--2--2--2--2--0--0--0--0--0--5--5--5--5--5--|
 ||--2--2--2--2--2--1--1--1--1--1--6--6--6--6--6--|
 ||--0--0--0--0--0--2--2--2--2--2--6--6--6--6--6--|
 ||-----------------2--2--2--2--2-----------------|
 ||-----------------------------------------------|

    d  d  u  u  p  d  d  u  u  d  d  d  u  u  d
E|-----------------2--2--2--2--2------------------|
B|-----------------2--2--2--2--2--0--0--0--0--0---|
G|--2--2--2--2--2--2--2--2--2--2--1--1--1--1--1---|
D|--4--4--4--4--4--0--0--0--0--0--2--2--2--2--2---|
A|--4--4--4--4--4-----------------2--2--2--2--2---|
E|--2--2--2--2--2---------------------------------|

E|-----------------------------------------------| |
B|-----------------------------------------------| |
G|-----------2--------------------2--------------| |
D|-----0--------0-----0-----0--------0-----------| | x 2
A|--------4--------4-----------4--------4--------| |
E|--2--------------------2-----------------------| |

  Play two more verses and then the chorus again.

  The song ends with this variation of the main "riff".

  03:32

E|------------------------------------2----------| |
B|------------------------------------3----------| |
G|-----------2--------------------2---2----------| |
D|-----0--------0-----0-----0--------------------| | x 4
A|--------4--------4-----------4-----------------| |
E|--2--------------------2-----------------------| |
Página 1 / 1

Letras e título
Acordes e artista

resetar configurações
OK