Cifra Club

Eu Tive Um Sonho

Kid Abelha

Cifra: Principal
exibições 274.062
Tom: G
[Intro]  D  G  A

E|-------------------|-------------|-9/10-10-10-10-|-9-9-9-7-7-7-5-5-5-|---8-14--10-10-9--12-10--|
B|-12-10-------------|-12-10----10-|-9/10-10-10-10-|-9-9-9-7-7-7-5-5-5-|-8---14--8--8--10-10-10--|
G|-------12-11-12-12-|-------12----|---------------|-------------------|-------------------------|
D|-------------------|-------------|---------------|-------------------|-------------------------|
A|-------------------|-------------|---------------|-------------------|-------------------------|
E|-------------------|-------------|---------------|-------------------|-------------------------|

[Solo]

E|-------------------------------(10p9h10p9)-(12p10h12p10)-----17----17----17----17--------------|
B|---------------------10-12-10-----------------------------19----19----19----19----19--15h19-17-|
G|-11-9--------9-11-12---------------------------------------------------------------------------|
D|------12-12------------------------------------------------------------------------------------|
A|-----------------------------------------------------------------------------------------------|
E|-----------------------------------------------------------------------------------------------|

E|-------------------------------------------------------------------------------5---------------|
B|-12-12-10-10-8-8-7-5---7-5--------------------------------3------3-----3-----3-----------------|
G|---------------------7-----6h7p6-6---------------------------2-4---2-4---2-4-------------------|
D|------------------------------------7-5p4------------------------------------------------------|
A|-------------------------------------------7-5p4--4h5------------------------------------------|
E|------------------------------------------------------5----------------------------------------|

E|-14-16-17-16-14--------------------------------------------------------------------------------|
B|----------------17-15-14-----------------------------------------------------------------------|
G|-------------------------16-14-1311---9--11-12-9--97-------------------------------------------|
D|-----------------------------------------------------------------------------------------------|
A|-----------------------------------------------------------------------------------------------|
E|-----------------------------------------------------------------------------------------------|

            D     G         A
Eu tive um sonho vou te contar
          Em        D      A
Eu me atirava do oitavo andar
          C/G           D/A
E era preciso fechar os olhos
            G         A       D
Prá não morrer e não me machucar

         Em      C
É o que devemos fazer
            D      A
Não temos que ter medo
         Em        C   A7(4)
É o que devemos fazer

Eu tive um sonho muitos soldados
Me procuravam dentro do meu prédio
E era preciso voar pelas escadas
Prá não deixar que eles chegassem perto

É o que devemos fazer
Não temos que ter medo
É o que devemos fazer

                 G     C9              D  D4
Não deixe de cruzar o seu olhar com o meu
        G              A           D
Eu vou jogar meu corpo em cima do seu 
               G       C9              D  D4
Não deixe de cruzar o seu olhar com o meu
        G                  A       D  G  A
Eu vou jogar meu corpo em cima do seu

C/G      D/A
É o que devemos fazer
C/G      D/A            A7(4)
É o que devemos fazer, não
Acordes para:
    Composição: George Israel / Paula TollerColaboração e revisão:
    • Marcos Paulo

    0 comentários

      mostrar mais comentários

      Conseguiu tocar?

      10tocaram0ainda não

      Grave um vídeo tocando Eu Tive Um Sonho e mande pra gente!

      00:00 / 00:00
      outros vídeos desta música
      repetirqualidadeautomática
      Outro vídeos desta música
        00:00 / 00:00
        automática
        OK