Cifra Club

Lágrimas de Chuva (acústico)

Kid Abelha

Cifra: Principal
exibições 306.575
Tom: G
(versão acústico)

(intro) C9 D9 Em

(solo vocal)
B |------10-13-11-10--------10-------------10-13-11-10-----10----
G|10-12-------------12--10--------10-12----------------12-------
D |------------------------------------------------------------12

E |-----0-----0---0---0---3-----0-----0-----0---0---0-----0-------0-----0---0---0-5-----0---0---0-
B |---5-----5---------------5-------5-----5-------------5-------5-----5-------------5-------------
G |-7-----7-----7---7---------7---7-----7-----7---7---7-------7-----7-----7---7-------7---7---7---
D |-----------------------------------------------------------------------------------------------
A |-----------------------------------------------------------------------------------------------
E |-----------------------------------------------------------------------------------------------

Em
Eu perco o sono e choro
Sei que quase desespero
         C9
Mas não sei porque
  Em
A noite é muito longa
Eu sou capaz de certas coisas
             C9
Que eu não quis fazer

   D9                         C9
Será que alguma coisa nisso tudo faz sentido

será que alguma...
E |---------------0--------------------------0-------0-|
B |---3-----1-------0------3-----3-----1---------1-----|
G |-2-----0-----0--------2-----2-----0-----0-----------|
D |-----2-----2--------0-----0-----2-----2-----2---2---|
A |----------------------------------------------------|
E |----------------------------------------------------|

   D9
A vida é sempre um risco
          C9
Eu tenho medo do perigo
Em
Lágrimas e chuva molham o vidro da janela

lágrimas...
E |-0-------------0----------------------|
B |-0-------------0-------------0--1-----|
G |-0-------------0------------------0---|
D |-2-------------2----------------------|
A |-2---0--2--3---2---0--2--3------------|
E |-0-------------0----------------------|

        C9
Mas ninguém me vê
 Em
O mundo é muito injusto
Eu dou plantão dos meus problemas
             C9
Que eu quero esquecer
D9
Será que existe alguém
            C9
Ou algum motivo importante
    D9
Que justifique a vida
         B7
Ou pelo menos esse instante

C9          D9          Em
Eu vou contando as horas

Eu vou contando...(3x)                        (solo)  (3x)
E |-----0-----0---0---0-----0-|-12-10-10-3-5-|---0---0---0---0---0---0---0---0-|-3-5-7-5-3-0-0----
B |---5-----5-------------5---|-12-10-10-4-6-|---------------------3-------3---|-------------5----
G |-7-----7-----7---7---7-----|--------------|-2h4-2h4-2h4-2h4-2h4-----4-------|------------------
D |---------------------------|--------------|---------------------------------|------------------
A |---------------------------|--------------|---------------------------------|------------------
E |---------------------------|--------------|---------------------------------|------------------

C9        D9         Em
E fico ouvindo passos
C9           D9             Em
Quem sabe o fim da história
   C9                     D9                 Em
De mil e uma noites de suspense no meu quarto

...meu quarto               (solo 2)
E |-8-7-5-3-2-0/3-5-3-2-0-3-|-0-3--0----------------------------------------0---0------0---0---0--
B |-------------------------|--------3--0------------------------------0------3---0--3h5-3h5-3h5--
G |-9-7-5-4-2-2/4-6-4-2-2-4-|-------------2--0-----------------0---2/4---4------------------------
D |-------------------------|------------------2--0----------2---2--------------------------------
A |-------------------------|-----------------------2--0---0--------------------------------------
E |-------------------------|----------------------------3----------------------------------------

E |---0---0-3-5-7-5-3---0---0---0----0----0----0----0---0---0---0---
B |-3h5-3h5-----------5p3-5p3-5p3-----------------------------------
G |--------------------------------4----5----2----4---4---4---4-----
D |-----------------------------------------------------------------
A |-----------------------------------------------------------------
E |-----------------------------------------------------------------

(versão cd)

(intro) A9 C4 A9 F C4

E |-0--0------------------1-0-|-----------------------------------
B |-0--1-1----------0---------|-----------------------------------
G |-2--0---0------2-----2-----|-------------5-------7-5-----7-5---
D |-2--3--------2-----3-------|-5-7-5-7-7-5---7-5-3-----3-3-------
A |-0--3------0---------------|-----------------------------------
E |-0-------------------------|-----------------------------------

(solo)
E |----------------------------------------------|-------15------------------------------
B |----------------------------------------------|----17----17-------18-17---------------
G |-------------------5---------5-7-5---5--------|-17----------17-17-------17------------
D |-7-5-7-7-5-7-7-5-7---7-5---7-------7---7-5-7--|----------------------------17-19-19---
A |----------------------------------------------|---------------------------------------
E |----------------------------------------------|---------------------------------------

Am
Eu perco o sono e choro
Sei que quase desespero
         F
Mas não sei porque
  Am
A noite é muito longa
Eu sou capaz de certas coisas
             F
Que eu não quis fazer

   G                         F
Será que alguma coisa nisso tudo faz sentido
   G
A vida é sempre um risco
          F
Eu tenho medo do perigo
G                           F
Lágrimas e chuva molham o vidro da janela
            G
Mas ninguém me vê
                  F
O mundo é muito injusto
                          Gm
Eu dou plantão dos meus problemas

Que eu quero esquecer
             F
Será que existe alguém ou algum motivo importante
Que justifique a vida
         E
Ou pelo menos esse instante

F           G            Am
Eu vou contando as horas
F         G           Am
E fico ouvindo passos
F            G              Am
Quem sabe o fim da história
   F                       G             Am
De mil e uma noites de suspense no meu quarto
Acordes para:
    Colaboração e revisão:
    • VLADIMIR KLIMEIKA
    • Thomas Vergutz
    • danilo sousa

    0 comentários

      mostrar mais comentários

      Conseguiu tocar?

      4tocaram0ainda não

      Grave um vídeo tocando Lágrimas de Chuva (acústico) e mande pra gente!

      00:00 / 00:00
      outros vídeos desta música
      repetirqualidadeautomática
      Outro vídeos desta música
        00:00 / 00:00
        automática
        OK