Cifra Club

No Seu Lugar

Kid Abelha

Cifra: Principal
exibições 123.655
Tom: F
(intro) (repete durante boa parte da música)   
                                                     ...estou
E|----------------------------------------|--------------------
B|----------------------------------------|--------------------
G|----------------------------------------|-----2--------------
D|-----3-------3---------3-----3---3------|-3-5---5-3----------
A|---3---3---3---3--1--3---1-----1--------|-----------5-3-5-1--
E|-1-------1------------------------------|--------------------
                                          \_____x2
(solo)
E|---------------------------------------------------------------------15----------------12-------
B|-(6-6-8-8-10)---10---11-11-10-10-8-8-----------------------------------------11-----------13----
G|-------------------------------------10-10-9-9-7-7------------------------10----12-10--------14-
D|---------------------------------------------------10-10-8-8-7-7--------------------------------
A|-----------------------------------------------------------------10-----------------------------
E|------------------------------------------------------------------------------------------------

()=sequência repetida várias vezes(bem rápido)

E|-17---------------------------------------------------------------------------------------------
B|----18----18-----------------10-11-11-11-10-11-11-10--11-11-10-10-8-8---------------------------
G|-------19----19-17-19-17----------------------------------------------10-10-9-9-7-7-------------
D|-------------------------19---------------------------------------------------------10-10-8p7---
A|----------------------------------------------------------------------------------------------8-
E|------------------------------------------------------------------------------------------------

(solo - acústico Mtv)
E|-------------------------------------------------------------------------8-8-10-8-------8-8-----
B|--------------------------------------------------------8----------10-11----------10-11-----11--
G|-10-9-7----7------------------------------------------7---10-7-10-------------------------------
D|--------10---10-8--7-8-7-----------------------7-8-10-------------------------------------------
A|-------------------------10-8-7---------7-8-10--------------------------------------------------
E|--------------------------------10-8-10---------------------------------------------------------

E|--------------------------------------------------------------
B|-10-11-10-8-10-8----------------------------------------------
G|-----------------10-9-7-9-7-5-7-------------------------------
D|----------------------------------8-7-5-----------------------
A|----------------------------------------8-7-5-3---------------
E|------------------------------------------------6-5-3-5-3-5-1-

(solo)
E|-------------------------------------------------------------
B|-6-5-3---3-5-6-3-5-6-3---3-5-6-------------------------------
G|-------5---------------5------------------------------5-7-5--
D|--------------------------------7-7-8-7-5-------5-7-8--------
A|------------------------------------------8-5-8--------------
E|-------------------------------------------------------------

E|-----------------------------------------------------------------
B|-6-6---6---6-8-6----6-5---5-6-5----------------------------------
G|-----7---7--------7-----7-------7-5------------------------------
D|------------------------------------8-7-5-7---5------------------
A|--------------------------------------------8---7-8-5-7---5---8--
E|--------------------------------------------------------8---6----

F      Bb           F          Bb
Desde que estamos aqui eu não quero saber
F       Bb           F             Bb         F  Bb
Quanto tempo se passou quem sou eu e onde estou
F         Bb        F              Dm      C     Bb
Será que fomos apressados ou foi o tempo que parou
C            Bb                C         F     Bb
Será que estamos parados congelados no espaço

F     Bb            F           Dm     C   Bb
Desde que estamos aqui eu não quero saber
       C           Bb            C
Quem está por cima quem está por baixo

F           Bb
Com você o tempo pára
Dm               Bb
Sem você o tempo voa
F           Bb
Sem você eu perco o tempo
Dm                C
Com você me sinto imortal

F     C          Bb
Eu quero ver você
                F
Ficar no meu lugar
          C       Bb
Eu quero ser você
                 F  Bb  F  Bb
Ficar no seu lugar
Acordes para:
    Composição: George Israel / Lui Farias / Paula TollerColaboração e revisão:
    • Guilherme Cordeiro

    0 comentários

      mostrar mais comentários

      Conseguiu tocar?

      3tocaram0ainda não

      Grave um vídeo tocando No Seu Lugar e mande pra gente!

      00:00 / 00:00
      outros vídeos desta música
      repetirqualidadeautomática
      Outro vídeos desta música
        00:00 / 00:00
        automática
        OK