Cifra Club

Pintura Íntima

Kid Abelha

Cifra: Principal (violão e guitarra)
exibições 448.577
Tom: E
[Intro]  E  C#m  A  B
         A  B
                             
E|---------------------------| 
B|-----6---------------------|
G|-5-6---5--5---5------------|
D|--------8-------5h6p5------|
A|-----------------------8---|
E|---------------------------|

E|---------------------------|
B|---------------------------|
G|---------------------------|
D|-6-5---6-5---6-6-6-5-------|
A|-----8-----8---------8-----|
E|---------------------------|
                             
E|---------------------------|   
B|-----6---------------------|   
G|-5-7---7---5---------------|
D|---------8---6-5-----------|  
A|-----------------8---------|  
E|---------------------------|

E|---------------------------|
B|-----6---------------------|
G|-5-7---7---5---------------|
D|---------8-----------------|
A|---------------------------|
E|---------------------------|
                             
E|-12----13-12-------10------|  
B|----13-------12-10---------|
G|----------------------12---|  
D|---------------------------|
A|---------------------------|
E|---------------------------|

E|-------------10-12---------|
B|-------10-13---------------|
G|-10-12-------------12------|
D|---------------------------|
A|---------------------------|
E|---------------------------|

 A    B           A      B
Vem amor que a hora é essa
Vê se entende a minha pressa
Não me diz que eu tô errado
Eu tô seco, eu tô molhado
Deixa as contas que no fim das contas
O que interessa prá nós é

E  C#m  A     B     E   C#m  A  B  E  C#m  A   B   E     C#m  A  B  ( A  B )
  Fazer amor de madrugada,               amor com jeito de virada

Larga logo desse espelho
Não reparou que eu tô até vermelho
Tá ficando tarde no meu edredom
Logo o sono bate
Acordes para:
    Composição: Leoni / Paula TollerColaboração e revisão:
    • Marcos Paulo
    • Xaxá Portilho
    • Eduardo Railton

    0 comentários

      mostrar mais comentários

      Conseguiu tocar?

      8tocaram1ainda não

      Grave um vídeo tocando Pintura Íntima e mande pra gente!

      00:00 / 00:00
      outros vídeos desta música
      repetirqualidadeAutomático
      Outro vídeos desta música
        00:00 / 00:00
        OK