Cifra Club

Pintura Íntima

Kid Abelha

Tab de baixo: Principal
                    
    INTRO:(3x)                                        (na 4a vez...)
G||-----------------------------------------------|---------------------------------------------|
D||----------------2------------------------------|----------------2----------------------------|
A||--------2---4-------4---2-2-----4--------------|--------2---4--------4---2-2-----4-----------|
E||--2-----------------------------------4--3--2--|--2------------------------------------------|
       
    VERSE 1:   (*aplique esse trecho quando achar apropiado).
G||------------------------------------------------------------------------------------|
D||------------------------------------------------------------------------------------|
A||----------------------------9--7--6-------------------------------------------------|
E||---7-----7--7----7--9----9-----------9--7----7--7----7--9----9--9----9--7----7--7---|


                   
   VERSE 2:                     (3x)          (na 4a vez,preparação para o refrão):
G||-----------------------------------------|----------------------------------------|
D||-----------------------------------------|----------------------------------------|
A||-----------------------------------------|----------------------------------------|
E||---7----7--7----7--9----9--9----9--7-----|---7----7--7----7--9-9-9-9-9-9-9-9-9----|


    REFRÃO:     (*introdução com variações)
G||---------------------------------------------------|   (*OBS: ao ouvir este trecho,tente improvi-
D||---------------2-------------------2---------------|    sar,porque,ele têm duas variações pos-
A||---------2h4-------2-2----2h4--4-------(?)---------|    síveis.)
E||--2----------------------------------------2--2----|


  (VERSE 1:junto com o solo do alto sax);
  (REFRÃO:até ao final da música).  



  (**Esta transcrição é puro improviso,por isso,qualquer erro é só corrigir!!!**)
Composição de Leoni / Paula Toller
Colaboração e revisão:
  • Bruno Tomas
  • Vagner Pichinatti
17.077 exibições

0 comentários

Ver todos os comentários

Conseguiu tocar?

0 Tocaram 0 Ainda não

Grave um vídeo tocando Pintura Íntima e nos envie!

00:00 / 00:00
Outros vídeos desta música
Repetir Qualidade Automático
Outros vídeos desta música
00:00 / 00:00
Automático

Cifra Club Pro

Aproveite o Cifra Club com benefícios exclusivos e sem anúncios
Cifra Club Pro
Aproveite o Cifra Club com benefícios exclusivos e sem anúncios
OK