Cifra Club

Por que não eu ?

Kid Abelha

Cifra: Principal
exibições 181.756
Tom: G
Em                   D
Quando ela cai no sofá
          C
So far away
Em                D
Vinho à beça na cabeça
          C
Eu que sei

Em                          D
Quando ela insiste em beijar seu travesseiro
C
Eu me viro do avesso
Em                      D
Eu vou dizer aquelas coisas
               C
Mas na hora esqueço

             G  D
Por que não eu?
             C
Por que não eu?
Em                  D
Eu encomendo um jantar
            C
Só pra nós dois
Em                  D
Se não tem nada depois
           C
Por que não eu?
Em                  D
Você tá nessa rejeitada
C
Caçando paixão
Em                    D
Eu com a cara mais lavada
             C
Digo: por que não?

             G  D
Por que não eu?
             C
Por que não eu?
Solo:
E|-------------4---------------------------------------9-12-11-9-12-----9-11-12-11-9----------|
B|---------5-----7-5-7-7-5-4-----------------9------------------------9--------------12-10-9--|
G|---4-6-6---6---------------6-----9----11-8---11-9-11----------------------------------------|
D|-6---------------------------7-----11-------------------------------------------------------|
A|--------------------------------------------------------------------------------------------|
E|--------------------------------------------------------------------------------------------|

E|-----------|---------------------------------9---11---11-9-12--|
B|-----------|-------------------------------9---9----9----------|
G|-9-11-11-9-|--11-9-11----11-9-11-9-11-11-9---------------------|
D|-----------|----------11---------------------------------------|
A|-----------|---------------------------------------------------|
E|-----------|---------------------------------------------------|
Acordes para:
    Colaboração e revisão:
    • Douglas Cabral
    • Vinicius Ziem

    0 comentários

      mostrar mais comentários

      Conseguiu tocar?

      14tocaram0ainda não

      Grave um vídeo tocando Por que não eu ? e mande pra gente!

      00:00 / 00:00
      outros vídeos desta música
      repetirqualidadeautomática
      Outro vídeos desta música
        00:00 / 00:00
        automática
        OK