Cifra Club

Life In The Arctic

Kill Hannah

Tab de baixo: Principal
at 0:40
G|----------------|
D|----------------|
A|----------------|x8
D|--999--9-9-999--|

G|----------------------------------------------------------|
D|----------------------------------------------------------|
A|-000--0-0-000---000--0-0-000------------------------------|
D|------------------------------222--2-2-222---222--2-2-222-|

G|----------------|
D|----------------|
A|----------------|x4
D|--999--9-9-999--|

G|----------------------------------------------------------|
D|----------------------------------------------------------|
A|-000--0-0-000---000--0-0-000------------------------------|
D|------------------------------222--2-2-222---222--2-2-222-|

G|----------------|
D|----------------|
A|----------------|x4
D|--999--9-9-999--|
00:00 / 00:00
Outros vídeos desta música
Repetir
Outros vídeos desta música
Composição de Mat Devine
123 exibições

0 comentários

Ver todos os comentários

Conseguiu tocar?

0 Tocaram 0 Ainda não

Grave um vídeo tocando Life In The Arctic e nos envie!

00:00 / 00:00

Cifra Club Pro

Aproveite o Cifra Club com benefícios exclusivos e sem anúncios
Cifra Club Pro
Aproveite o Cifra Club com benefícios exclusivos e sem anúncios
OK