Lips Like Morphine

Kill Hannah

Composição de: Mat Devine
tom: A
The tab needs some work, I'm missing some important bits in the introduction and
but most of its pretty good I think. I'd really love feedback so we can get it all tabbed
trust me mines far from it, but if you want the basic chords and stuff, you've come to 
right place. The rhythm is easy so I just wrote out which chords to play.

~Drop D~

*Intro
e--------------------------------------------|
b--------------------------------------------|
g--6--6-----------------------6--------------|  My intro is very lacking
d--6--6 x a bunch palm muted--6--------------|  so help me out okay?
a--4--4-----------------------4--------------|
D--------------------------------------------|

*Verse
e--------------------------------------------|
b--------------------------------------------|
g--6--------6--------6-----------------------|
d--6--7--2--6--7--2--6--9--4-----------------|
a--4--7--2--4--7--2--4--9--4-----------------|
D-----7--2-----7--2-----9--4-----------------|

*Chorus
e--------------------------------------------|
b--------------------------------------------|
g--6--9--------------------------------------|
d--6--9--7--9--11--13--14--16--7--9----------|
a--4--7--7--9--11--13--14--16--7--9----------|
D--------7--9--11--13--14--16--7--9----------|

*Intro
*Verse
*Chorus

There is no guitar in the bridge, then the Chorus plays again behind that mad solo that
couldn't figure out if my life depended on it. But that's pretty much it. Anyone who can
out the lead, you can be my hero.
Página 1 / 1

Letras e título
Acordes e artista

resetar configurações
OK