Cifra Club

Aprenda

Cayman Islands

Kings Of Convenience

Cifra: Principal (violão e guitarra)
Quer fazer aulas de música com a gente? Responda essas perguntas
e nos ajude nesse projeto! →
tom: Ab (forma dos acordes no tom de F) Capotraste na 3ª casa
Violão I

[Ghost Intro]

E|-------x-x-x----------x-x-x-------------------------------|
B|-------x-x-x----------x-x-x-------------------------------|
G|-------x-x-x----------x-x-x-------------------------------|
D|----------------------------------------------------------|
A|----------------------------------------------------------|
E|-x--x--------x--x--x--------------------------------------|

[Intro e Primeira Parte]

E|-0------------0------------0-------------------------|
B|----------3------------3------------3-----1-----0----|
G|-------2------------2------------2----------0-----0--|
D|----3------------3------------3---------------3------|
A|-----------------------------------------------------|
E|-1----------1-1----------1-3-----------3-------------|

E|-----------------------------------------------------|
B|-0--------0---0-------0---0--------0-----1--------3--|
G|-------0------------0-----------0--------------0-----|
D|----2------------2------------2-------2-----2--------|
A|-3----------3-3---------3-0--------------------------|
E|-----------------------------------------------------|

[Ponte]

E|------------------------------------------------------|
B|-3--------3---3--------3---3--------3-----0--------0--|
G|-------2------------2------------2--------------0-----|
D|----3------------3------------3--------------2--------|
A|------------------------------------------------------|
E|-1----------1-1----------1-3-----------3--------------|

E|-0------------0------------0------------0-------------|
B|----------3------------3------------3-----------3-----|
G|-------2------------2------------2------------2-------|
D|----4------------4------------4------------4------4---|
A|------------------------------------------------------|
E|-2----------2-2----------2-2----------2-2-------------|

E|-0------------0------------0------------0-------------|
B|----------3------------3------------3------------3----|
G|-------2------------2------------2------------2-------|
D|----2------------2------------2------------2----------|
A|------------------------------------------------------|
E|-1----------1-1----------1-0----------0-0----------0--|

E|-0----------------|
B|------------------|
G|-------2--------2-|
D|----2-----------2-|
A|------------------|
E|-0-----------0----|

E|-8------------8------------8-----------8--------------|
B|----------0------------0-----------0-----------0------|
G|-------0------------0------------0-----------0--------|
D|----7-------7----7-------7----7------7-----7-----7----|
A|-0------------0------------0-----------0--------------|
E|------------------------------------------------------|

E|-0-----------0-----------0-----------0----------------|
B|----------0-----------0-----------0-----------0-------|
G|-------5-----------5-----------5-----------5----------|
D|----7-----------7-----------7-----------7-------------|
A|------------------------------------------------------|
E|-0-----------0-----------0-----------0----------------|

Violão II 

[Intro e Final]

E|-------9-------9-------| |-------9-------9-------|
B|----11------11------11-| |----11------11------11-|
G|---------10------------| |---------8-------------|
D|-11--------------11----| |-11--------------11----|
A|-----------------------| |-----------------------|
E|-----------------------| |-----------------------|

E|-------8-------8-------| |-------6-------9-------|
B|----11------11------11-| |----9------9---------9-|
G|---------8-------------| |---------6-------------|
D|-10--------------10----| |-8----------------9----|
A|-----------------------| |-----------------------|
E|-----------------------| |-----------------------|

[Ponte]

E|---------------------| |---------------------|
B|-----6-----6---------| |-----6-----6---------|
G|---7-----7-----7-----| |---6-----6-----6-----|
D|-8-----8-----8-------| 4x     |-8-----8-----8-------|   2x
A|---------------------| |---------------------|
E|---------------------| |---------------------|

E|---------------------| |---------------------|
B|-----6-----6---------| |-----11-----11-------|
G|---8-----8-----8-----| |---10-----10-----10--|
D|-8-----8-----8-------| 4x     |-11-----11-----11----|   4x
A|---------------------| |---------------------|
E|---------------------| |---------------------|

E|---------------------|
B|-----9-----9---------|
G|---10----10----10----|
D|-11----11----11------| 4x
A|---------------------|
E|---------------------|
Composição de Kings of Convenience
Colaboração e revisão:
  • Cássio Amaral
  • Hudson Julirmes
18.600 exibições
    • ½ Tom
    • A
    • Bb
    • B
    • C
    • Db
    • D
    • Eb
    • E
    • F
    • F#
    • G
    • Ab
  • Adicionar à lista

    0 comentários

    Ver todos os comentários

    Conseguiu tocar?

    2 Tocaram 0 Ainda não

    Grave um vídeo tocando Cayman Islands e nos envie!

    00:00 / 00:00
    Outros vídeos desta música
    Repetir Qualidade Automático
    Outros vídeos desta música
    00:00 / 00:00
    Automático

    Cifra Club Pro

    Aproveite o Cifra Club com benefícios exclusivos e sem anúncios
    Cifra Club Pro
    Aproveite o Cifra Club com benefícios exclusivos e sem anúncios
    OK