Cifra Club

Leaning Against The Wall

Kings Of Convenience

Cifra: Principal (violão e guitarra)
tom: A
Intro: A7+ C6 A7+ C6 E7/B
Riff: A7+ C6 A7+ C6 E7/B
E|----------------------------------------------------------------------------------|
B|-------------------------------------7/8-8-8-8-8--6-6-6--6-6-6/5------------------|
G|-8/9--7--6--6h7p6-5---8/9--7--6--6h7-----------------------------7--6--6h7p6-5----|
D|--------------------7----------------------------------------------------------7--|
A|----------------------------------------------------------------------------------|
E|----------------------------------------------------------------------------------|

E|--------------------------------------------|
B|--------------------------------------------|
G|---6/7--5--4---4h5p4------------------------|
D|----------------------7-------7-------------|
A|--------------------------7h8---8--7--5h7---|
E|--------------------------------------------|

     A7+
Your eyes are cold,
  C6                  A7+  C6
I know you'll tell me all
A7+
Not to fall
  C6               A7+   C6, E7/B
I lean against the wall

(Riff)

    A7+
I'm on the floor
(---)
    C6           A7+   C6
not listening anymore
(---)
  A7+
I should have known
(You cross your arms and tell no lies)
    C6
the things to which you're prone
(a thousand thoughts run through my mind)
A7+
---
(a thousand words that I don't need)
C6                         E7/B
---
(I never thought you could do this)
  A7+
I should have known
(You cross your arms and tell no lies)
    C6
the things to which you're prone
(a thousand thoughts run through my mind)
A7+
---
(a thousand words that I don't need)
C6                         E7/B
---
(I never thought you could do this)

(Riff)

     A7+
Your eyes are cold,
  C6                  A7+  C6
I know you'll tell me all
A7+
Not to fall
  C6               A7+   C6, A7+*
I lean against the wall
00:00 / 00:00
Outros vídeos desta música
Repetir
Outros vídeos desta música
Composição de Kings of Convenience
1.104 exibições
    • ½ Tom
    • A
    • Bb
    • B
    • C
    • Db
    • D
    • Eb
    • E
    • F
    • F#
    • G
    • Ab
  • Adicionar à lista

    0 comentários

    Ver todos os comentários

    Conseguiu tocar?

    0 Tocaram 0 Ainda não

    Grave um vídeo tocando Leaning Against The Wall e nos envie!

    Entre para oCifra Club PRO

    Tenha acesso a benefícios exclusivos no App e no Site

    • Chega de anúncios

    • Prioridade de compra em lançamentos

    • Mais recursos no app do Afinador

    • Atendimento Prioritário

    • Descontos nos produtos Cifra Club

    • Ajude a produzir mais conteúdo

    00:00 / 00:00

    Cifra Club Pro

    Aproveite o Cifra Club com benefícios exclusivos e sem anúncios
    Cifra Club Pro
    Aproveite o Cifra Club com benefícios exclusivos e sem anúncios
    OK