Cifra Club

Rion On An Empty Street

Kings Of Convenience

Cifra: Principal (violão e guitarra)
tom: Bb
Intro 2x:
E|------------------------------------------------|
B|------------------------------------------------|
G|------2---3--2p-------2-------2-----------------|
D|---5------------5---------5------5----3---5-----|
A|------------------------------------------------|
E|------------------------------------------------|

E|------------------------------------------------|
B|------------------------------------------------|
G|------2---3--2p-------2-------2-----------------|
D|---5------------5---------5------5-------3------| 
A|-------------------------------------5----------|
E|------------------------------------------------|

Gsus4  Cm
"Why, why so quiet
Bb      Fsus2             Gsus4               Cm  Bb  Fsus2
 oh my mysterious country singer," she asked
Gsus4    Cm
my life it's a riot
Bb              Fsus2         Gsus4                  Cm  Bb  Fsus2
 I am climbing barricades in empty streets at night

(Intro)

when I'm down fighting shadows
twenty-five postcards in a box in my room
telephone conversations
gas slowly leaking out of a heart shaped balloon

Gsus2
it's a dangerous game
Fsus2                            Gsus2
that I'm not sure if I could keep playing for long
Gsus2
it's a dangerous game,
Fsus2                            Gsus2
it's a very fine line and if one step is wrong
Cm                   Bb     Gsus2
I have no cards to play and that's why
Cm                   Bb
I've got nothing to say tonight
00:00 / 00:00
Outros vídeos desta música
Repetir
Outros vídeos desta música
Composição de Erlend Oye / Eirik Glambek Boe
Colaboração e revisão:
  • Victor Santos
1.086 exibições
    • ½ Tom
    • A
    • Bb
    • B
    • C
    • Db
    • D
    • Eb
    • E
    • F
    • F#
    • G
    • Ab
  • Adicionar à lista

    0 comentários

    Ver todos os comentários

    Conseguiu tocar?

    1 Tocaram 0 Ainda não

    Grave um vídeo tocando Rion On An Empty Street e nos envie!

    Entre para oCifra Club PRO

    Tenha acesso a benefícios exclusivos no App e no Site

    • Chega de anúncios

    • Prioridade de compra em lançamentos

    • Mais recursos no app do Afinador

    • Atendimento Prioritário

    • Descontos nos produtos Cifra Club

    • Ajude a produzir mais conteúdo

    00:00 / 00:00

    Cifra Club Pro

    Aproveite o Cifra Club com benefícios exclusivos e sem anúncios
    Cifra Club Pro
    Aproveite o Cifra Club com benefícios exclusivos e sem anúncios
    OK