Cifra Club

Arizona

Kings Of Leon

Tab de baixo: Principal
exibições 3.806

Tabbed By : Nick Tipling
e-mail: *

new album, Because of the Times, is great. Check it out if you havent already. This is 
first tab, but others may be on the way. Any other questions find me on myspace.

Intro
G|--------------------------------------------|
D|--------------------------------------------|
A|----7777777777777777777777777777(until 0:25-|
E|--------------------------------------------|

At 0:25 it goes to
G|---------9-----8-------------------------|
D|----------------------11------9----7--6--|
A|------7-----7-----7-------7--------------|
E|-----------------------------------------|

At 0:50 it goes back to
G|-----------------------------------------|
D|-----------------------------------------|
A|---77777(etc.)---------------------------|
E|-----------------------------------------|

Then at 1:03
G|---------9-----8-------------------------|
D|----------------------11------9----7--6--|
A|------7-----7-----7-------7--------------|
E|-----------------------------------------|

1:28 back to
G|-----------------------------------------|
D|-----------------------------------------|
A|---77777(etc.)---------------------------|
E|-----------------------------------------|

1:40 it's back to (it doesn't really sound like it at first)
G|---------9-----8-------------------------|
D|----------------------11------9----7--6--|
A|------7-----7-----7-------7--------------|
E|-----------------------------------------|

2:17 is a little solo part
G|-----------------------------------------|
D|-----------6----------11p9h11------------|
A|---7-------------------------------------|
E|-------9-------9-------------------------|

2:30 back to
G|---------9-----8-------------------------|
D|----------------------11------9----7--6--|
A|------7-----7-----7-------7--------------|
E|-----------------------------------------|

I dont have the bit at 3:20 when it goes into the higher octave

3:44 back to
G|---------9-----8-------------------------|
D|----------------------11------9----7--6--|
A|------7-----7-----7-------7--------------|
E|-----------------------------------------|
and do that until the end

| /  slide up
| \  slide down
| h  hammer-on
| p  pull-off
| ~  vibrato
| +  harmonic
| x  Mute note
============================================================================

0 comentários

    mostrar mais comentários

    Conseguiu tocar?

    0tocaram0ainda não

    Grave um vídeo tocando Arizona e mande pra gente!

    00:00 / 00:00
    outros vídeos desta música
    repetirqualidadeautomática
    Outro vídeos desta música
      00:00 / 00:00
      automática
      OK