Cifra Club

Around The World

Kings Of Leon

Tab de baixo: Principal
exibições 280
Intro: (0:08)                   
G|------------|
D|------------|
A|---/9---7---|
E|------------|

G|--------------------------------------------------------------------------------|
D|o------------------------------------7\------------------------------------7\--o|
A|o-----------7-9-7-X----------7-9-7h9--------------7-9-7-X----------7-9-7h9-----o|
E|---5--5-5-5---------5--5-5-5-------------2--2-2-2---------2--2-2-2--------------|

Verse:                                
G|------------------------------------------------------------------|
D|o----------------------------------------------------------------o|
A|o---------7-9-7-X-------7-9--7\--------7-9-7-X-------7-9--7\-----o|
E|----5-------------5--------------2-------------2------------------|

G|------------------------------------------------------------------|
D|o----------------------------------------------------------------o|
A|o---------7-9--7\-------7-9--7\--------7-9--7\-------7-9--7\-----o|
E|----5-------------5--------------2-------------2------------------|

Chorus:
G|-------18--16--14--13--11--9--7-----------------------------|-------------------------|
D|o----------------------------------------------------------o|-------------------------|
A|o---0~-----------------------------------------------------o|--7-7-7-7--7-7-7-7--7\---|
E|--------------------------------2~--------------------------|-------------------------|

G|--------------------------------------------------------------------------------|
D|o------------------------------------7\------------------------------------7\--o|
A|o-----------7-9-7-X----------7-9-7h9--------------7-9-7-X----------7-9-7h9-----o|
E|---5--5-5-5---------5--5-5-5-------------2--2-2-2---------2--2-2-2--------------|

Verse:                                
G|------------------------------------------------------------------|
D|o----------------------------------------------------------------o|
A|o---------7-9-7-X-------7-9--7\--------7-9-7-X-------7-9--7\-----o|
E|----5-------------5--------------2-------------2------------------|

G|------------------------------------------------------------------|
D|------------------------------------------------------------------|
A|----------7-9--7\-------7-9--7\--------7-9--7\-------7-9--7\------|
E|----5-------------5--------------2-------------2------------------|

G|-----------------------------------------------------------------------|
D|-----------------------------------------------------------------------|
A|----------7-9--7\-------7-9--7\--7/9-----7-9--7\--7/9-----7-9--7\------|
E|----5-------------5----------------------------------------------------|

Chorus:
G|-------18--16--14--13--11--9--7------------------------------|
D|o-----------------------------------------------------------o|
A|o---0~------------------------------------------------------o|
E|--------------------------------2~---------------------------|

G|------14--16--18--16--14--13\---------------------------------|
D|--------------------------------------------------------------|
A|---0~---------------------------------------------------------|
E|---------------------------------2~---------------------------|

G|------18--16--14--13--11--9--7-----------------------------|-------------------------|
D|-----------------------------------------------------------|-------------------------|
A|---0~------------------------------------------------------|--7-7-7-7--7-7-7-7--7\---|
E|-------------------------------2~--------------------------|-------------------------|

                                                                         (Repeat x5)      
G|--------------------------------------------------------------------------------|
D|o------------------------------------7\------------------------------------7\--o|
A|o-----------7-9-7-X----------7-9-7h9--------------7-9-7-X----------7-9-7h9-----o|
E|---5--5-5-5---------5--5-5-5-------------2--2-2-2---------2--2-2-2--------------|

G|--------------------------------------------------------------------------------|
D|-------------------------------------7\-----------------------------------------|
A|------------7-9-7-X----------7-9-7h9--------------7-9-7-X-7-7-7-7--7-7-7-7--7---|
E|---5--5-5-5---------5--5-5-5-------------2--2-2-2-------------------------------|
Colaboração e revisão:
  • Miguel Ferreira

0 comentários

    mostrar mais comentários

    Conseguiu tocar?

    1tocaram0ainda não

    Grave um vídeo tocando Around The World e mande pra gente!

    00:00 / 00:00
    outros vídeos desta música
    repetirqualidadeautomática
    Outro vídeos desta música
      00:00 / 00:00
      automática
      OK