Cifra Club

Birthday

Kings Of Leon

Tab de baixo: Principal
exibições 3.828
(intro)

G|----------------------------------------|
D|----------------------------------------| 
A|------5-7------5-7----9-9-7-5--9-9-7-5--|
E|----7------7-7--------------------------|

(verso 1 - 5x)
G|----------------------------------------| 
D|----------------------------------------| 
A|------5-7------5-7----9-9-7-5--9-9-7-5--| 
E|--7-7------7-7--------------------------| 

(refrão)
G|----------------------------------------|
D|----------------------------------------|
A|----------------------------------------| 
E|----333333333333-777777777777-----------| 

G|----------------------------------------|
D|----------------------------------------|
A|-----------------------9-7-5------------|
E|----333333333333-777777-----7/9-7-------|

(verso 2 - 6x)

(refrão)

(verso 3)
G|----------------------------------------|
D|-------------------------7-7h9----------|
A|------5-7------5-7---9-9-------9-9-7-5--|
E|----7------7-7--------------------------|

G|-------------------------------------------| 
D|-------------------------7-7h9-------------|
A|------5-7------5-7---9-9-------9-9-7-5--9\-|
E|--7-7------7-7-----------------------------|

(pré-refrão)
G|----------------------------------------|
D|----------------------------------------| 
A|----------------------------------------| 
E|----3-----------7-----------------------|

G|----------------------------------------|
D|----------------------------------------|
A|----------------------------------------|
E|----33333333333-777777777777------------|

G|----------------------------------------|
D|----------------------------------------|
A|----------------------------------------| 
E|----333333333333-777777777777-----------|

G|----------------------------------------|
D|----------------------------------------|
A|----555555555555-777777-9-7-5-----------|
E|------------------------------7/9-7-----|

(verso 4)
G|----------------------------------------|
D|--------------------------7-7h9---------|
A|------5-7------5-7----9-9---------------|
E|----7------7-7--------------------------|

0 comentários

    mostrar mais comentários

    Conseguiu tocar?

    1tocaram0ainda não

    Grave um vídeo tocando Birthday e mande pra gente!

    00:00 / 00:00
    outros vídeos desta música
    repetirqualidadeautomática
    Outro vídeos desta música
      00:00 / 00:00
      automática
      OK