Cifra Club

Bucket

Kings Of Leon

Cifra: Principal
exibições 12.024
Tom: D
INTRO: D A G x 2

SOLO:
   D
e|-7--5-----5-----7--5-----5----5--7--5---
B|-------7--------------7----------------7
G|----------------------------------------
D|----------------------------------------
A|----------------------------------------
E|----------------------------------------

   A
e|-------------------------------------------
B|-7--5-----5----5-7--5-----5----5--7--5-----
G|-------6---------------6----------------6--
D|-------------------------------------------
A|-------------------------------------------
E|-------------------------------------------

   G
e|-----------------------------------------
B|-5--3-----3----5--3-----3----3--5--3-----
G|-------4-------------4----------------4--  <-- 2X
D|-----------------------------------------  
A|-----------------------------------------
E|----------------------------------------- 

D
I'll be the one to show you the way 
A
You'll be the one to always complain 
G
Three in the morning come-a bang bang bang 
All out of fags and I just can't wait 
D
Cancel the thing that I said I'd do 
A
I don't feel comfortable talkin' to you 
G
'Less you got the zipper fixed on my shoe 
Then I'll be in the lobby drinking for two 

Em
Eighteen 
F#m
Balding 
D    <--- aqui entra um riff    e|-14------
Star                            B|----15---
                                G|-------14  <--- 2X
                                A|---------
                                D|---------
                                E|---------


Em
Golden 
F#m
Falling 
D        <---- riff
Hard 

D
Look at the shakies, what's with the blush?
A
Fresh off the plane in my fuzzy rush 
G
Everyone's gathered to idolize me 
I hate the way you talk your Japanese scream 
D
It's been too long since I left the shed 
A
You kick the bucket and I'll swing my legs 
G
Always remember the pact that we made 
Too young to die but old isn't great 


Em
Eighteen 
F#m
Balding 
D
Star 
Em
Golden 
F#m
Falling 
D
Hard

SOLO (intro): D A G 

D                                             
I'm-a gonna show the way
                          e|-14------   
                          B|----15---
                          G|-------14 <-- 2X 
                          D|---------   
                          A|---------
                          E|---------


A                                               
I'm-a gonna show the way
                          e|-14------
                          B|----12---
                          G|-------14 <-- 2X
                          D|---------   
                          A|---------
                          E|---------


G                                               
I'm-a gonna show the way, I'm-a gonna show the way
                                                   e|-12------
                                                   B|----15---
                                                   G|-------12 <-- 4X
                                                   D|---------  
                                                   A|---------
                                                   E|---------


Em
Eighteen
F#m
Balding
D
Star
Acordes para:
    Colaboração e revisão:
    • Alex Pereira

    0 comentários

      mostrar mais comentários

      Conseguiu tocar?

      1tocaram0ainda não

      Grave um vídeo tocando Bucket e mande pra gente!

      00:00 / 00:00
      outros vídeos desta música
      repetirqualidadeautomática
      Outro vídeos desta música
        00:00 / 00:00
        automática
        OK