Cifra Club

California Waiting

Kings Of Leon

Tab de baixo: Principal
exibições 1.716
Album: Youth & Young Manhood
Tabbed By: SurferWoz

Tuning: Normal

-INTRO-

E|--------------------------------------------------------------------------------|
A|----------------5555555555555555--------------------------------5555555555555555|
D|5555555555555-4------------------5555-------------------------------------------|
G|--------------------------------------4444-11-11-11-11-14-14-14-----------------|

-Verse-

E|---------------------------------------------------------------------|
A|----------------5555555555555555-----------------5555555555555555----|
D|5555555555555-4------------------5555555555555-4---------------------|
G|---------------------------------------------------------------------|

E|---------------------------------------------------------------------|
A|----------------5555555555555555-------------------------------------|
D|5555555555555-4------------------------------------------------------|
G|---------------------------------4444444444444444-2222222222222222---|

-Chorus-

E|---------------------------------------------------------------------|
A|----------------5555555555555555------------------5555555555555555---|
D|5555555555555-4-------------------55555555---------------------------|
G|------------------------------------------44444444-------------------|

E|---------------------------------------------------------------------|
A|----------------5555555555555555------------------5555555555555555---|
D|5555555555555-4-------------------55555555---------------------------|
G|------------------------------------------44444444-------------------|

-Verse-

-Chorus-

-Bridge-

E|------------------------------------------------------------------|
A|-44444444444444444444444444444444---------------------------------|
D|---------------------------------77777777777777777777777777777777-|
G|------------------------------------------------------------------|

-Pre-Chorus-

E|--------------------------------------------------------------------|
A|---------------------------------5r----------------------------5/7\-|
D|5r------------------------------------------------------------------|
G|--------------------------------------------------------------------|

E|--------------------------------------------------------------------|
A|---------------------------------5r---------------------------------|
D|5r------------------------------------------------------------------|
G|--------------------------------------------------------------------|

E|--------------------------------------------------------------------|
A|----------------5555555555555555------------------5555555555555555--|
D|5555555555555-4-------------------55555555--------------------------|
G|------------------------------------------44444444------------------|

-Chorus-

-Outro-

E|--------------------------------------------------------------------|
A|-----------------5555555555555555------------------5555555555555555-|
D|55555555--------------------------55555555--------------------------|
G|--------44444444--------------------------44444444------------------|

E|--------------------------------------------------------------------|
A|-----------------5555555555555555-----------------------------------|
D|55555555--------------------------55555555555555555r----------------|
G|--------44444444----------------------------------------------------|


| /  slide up
| \  slide down
| r  let ring
| h  hammer-on
| p  pull-off
| ~  vibrato
| +  harmonic
| x  Mute note
===============================================================================

0 comentários

    mostrar mais comentários

    Conseguiu tocar?

    0tocaram0ainda não

    Grave um vídeo tocando California Waiting e mande pra gente!

    00:00 / 00:00
    outros vídeos desta música
    repetirqualidadeautomática
    Outro vídeos desta música
      00:00 / 00:00
      automática
      OK