Cifra Club

Camaro

Kings Of Leon

Tab de baixo: Principal
exibições 545
intro

G-------------------------|
D----7-5-7-5-/10-7-10-12--|
A--00-0-0-0-0---0-0-------|
E-------------------------|

verse

G---/9-7-/12-11-9-7-4-6--|
D--7---------------------|
A-0(let ring)------------|
E------------------------|

bridge

G---12---12-------11---11-------9---9-------9---9-----|
D-14---14---14--12---12---12--11--11--11--11--11--11--|
A-----------------------------------------------------|
E-----------------------------------------------------|

0 comentários

    mostrar mais comentários

    Conseguiu tocar?

    0tocaram0ainda não

    Grave um vídeo tocando Camaro e mande pra gente!

    00:00 / 00:00
    outros vídeos desta música
    repetirqualidadeautomática
    Outro vídeos desta música
      00:00 / 00:00
      automática
      OK