Cifra Club

Charmer

Kings Of Leon

Tab de baixo: Principal
exibições 2.616
This is my favourite song off their new album its absolutely awsome

Intro/Verse/Chorus

G|---------------------|
D|---------------------|
A|------2222-----------|
E|-3333------0000-2222-|

Bridge

G|-------------|
D|-------------| 
A|-777-33-22---|
E|-----------3-| x2

G|-------------------|
D|-------------------| 
A|-77777-777-33-22---|
E|-----------------3-| x3

G|--------------------|
D|-----9--------------| 
A|-7777--777-33-22----|
E|------------------3-| x1

G|-------------------|
D|-------------------| 
A|-77777-777-33-22---|
E|-----------------3-| x1

G|---------------------|
D|---------------------|
A|------2222-----------|
E|-3333------0000-2222-| x4

Then chorus to finish

Enjoy!

0 comentários

    mostrar mais comentários

    Conseguiu tocar?

    0tocaram0ainda não

    Grave um vídeo tocando Charmer e mande pra gente!

    00:00 / 00:00
    outros vídeos desta música
    repetirqualidadeautomática
    Outro vídeos desta música
      00:00 / 00:00
      automática
      OK