Cifra Club

Cold Desert

Kings Of Leon

Cifra: Principal
exibições 11.703
Tom: D
E|-----------------------------------------------------------------------------------------|
B|-----------------------------------------------------------------------------------------|
G|-----------------------------------------------------------------------------------------|
D|-----0---0---0---0---0---0---0---0---0---0---0---0---0---0---0---0---0-------------------| 2x
A|---5---5---5---5---5---5---4---5---7---2---2---2---2---2---2---2---2---------------------|
E|-----------------------------------------------------------------------------------------|

E|------------------------------------------------------------------------------------------|
B|------------------------------------------------------------------------------------------|
G|------------------------------------------------------------------------------------------|
D|------0---0---0---0----0----0----0----------0----0----0----0----0----0----0----0----------| 2x
A|--2/9---9---9---9---10---12---11---9---9/14---14---14---14---16---17---16---14---16-------|
E|------------------------------------------------------------------------------------------|

D                Bm                            A
I'm on the corner, waiting for a light to come on
G
That's when I know that you're alone
D                        Bm                       A
It's cold in the desert, water never sees the ground
G                            D
Special unspoken without sound

( D    Bm    A    G     D )

D                        Bm                     A
You told me you loved me, that I'd never die alone
G
Hand over your heart, let's go home
D                Bm                       A
Everyone noticed, everyone has seen the signs
G                            D
I've always been known to cross lines

( D    Bm    A    G     D )

D                Bm                       A
I've never ever cried when I was feeling down
G
I've always been scared of the sound
D                   Bm                       A
Jesus don't love me, no one ever carried my load
G                            D
I'm too young to feel this old

( D    Bm    A    G     D )

D                Bm
Is it you, is it me
A                            G
Or does nobody know, nobody see
          D
Nobody but me

( D    Bm    A    G     D )
Acordes para:

    0 comentários

      mostrar mais comentários

      Conseguiu tocar?

      4tocaram0ainda não

      Grave um vídeo tocando Cold Desert e mande pra gente!

      00:00 / 00:00
      outros vídeos desta música
      repetirqualidadeautomática
      Outro vídeos desta música
        00:00 / 00:00
        automática
        OK