Cifra Club

Crawl

Kings Of Leon

Tab de baixo: Principal
exibições 708
Main/verse riff (distorted)
G|---------------|
D|----7----7-----|
A|---------------|
E|-05---55---5---|

He's got some variations on it now and then.
G|------12-12-12-12-12-|
D|---------------------|
A|-0-10----------------|
E|---------------------|

G|------12-12-12---12-12-12|
D|-------------------------|
A|-0-10----------10--------|
E|-------------------------|

Not 100% sure on this one:
G|---------------------|
D|---------------------|
A|---------------------|
E|-7-5-7-5-05----------|

Main/verse 2 
G|-------------------|
D|------12-----12----|
A|-------------------|
E|-0-10----1010--10--|

Main/verse 2 ends with this every verse but the first.
G|-----------------------|
D|-12h14-12-10-----------|
A|-------------12-10-----|
E|-----------------------|

Chorus
G|-12----------|
D|----14-12-14-|
A|-------------|
E|-------------|

Playing E0 and A0 in between (switches after 4 bars)

Breakdown
G|-99-79-79--7---------------|
D|-------------9-7-----------|
A|-----------------9-7-------|
E|---------------------10-7--|

Second breakdown
G|-99-79-79-7---------|
D|------------9-7-----|
A|----------------9---|
E|--------------------|

0 comentários

    mostrar mais comentários

    Conseguiu tocar?

    0tocaram0ainda não

    Grave um vídeo tocando Crawl e mande pra gente!

    00:00 / 00:00
    outros vídeos desta música
    repetirqualidadeautomática
    Outro vídeos desta música
      00:00 / 00:00
      automática
      OK