Enviar cifraEntrar

Don't Matter

Kings Of Leon

Cifra: Principal
exibições 16
Tom: A
Intro 2x: D  C#  F#  

Verso 1: 

D             C#                 F#m
Such a swine, lips like wine but it don't matter to me
D            C#               F#m
Take a turn before I burn and it don't matter to me
D            C#               F#m
Like a snake awake and vague, it don't matter to me
D              C#          F#m
I can fuck or I can fight, it don't matter to me

Refrão: 

           A   G#     F#m
Cause it's always the same 
        A   G#     D  C#    F#m
And I'm always the same, whoa

Verso 2: 

D              C#                 F#m
Uncle Sam, he looks god damned, but it don't matter to me
D              C#                F#m
I don't know where I'm gonna go, it don't matter to me
D                   C#            F#m
You could bleed and stain my seed it don't matter to me

Refrão: 

           A   G#     F#m
Cause it's always the same 
        A   G#     D  C#    F#m
And I'm always the same, whoa

Verso 3: 

D             C#                 F#m
I'm not a man everybody said but it don't matter to me
D              C#             F#m
I get her feet on my seat but it don't matter to me
D                C#           F#m
Break my heart tear me apart, it don't matter to me, no no
D             C#          F#m
I put a shine in your eye it don't matter to me

Refrão: 

           A   G#     F#m
Cause it's always the same 
        A   G#     D  C#    F#m
And I'm always the same, whoa

Solo


E|---------17----------------------------------------------------------------|
B|--17b19----17b19-17b19-14--------------------------------------------------|
G|--------------------------16-14-16--14-15-15-15-14-15-15b17-15-------------|
D|----------------------------------16---------------------------------------|
A|---------------------------------------------------------------------------|
E|---------------------------------------------------------------------------|


E|----------------------------------------------------------14h17------------|
B|-11h14p11--11--11-----------------------------------17b19------17-14-------|
G|---------14--14--14-14b16x3-14-11-14b16-17b19-19b21------------------16----|
D|---------------------------------------------------------------------------|
A|---------------------------------------------------------------------------|
E|---------------------------------------------------------------------------|


E|---------------------------------------------------------------------------|
B|---------------------------------------------------------------------------|
G|-14-16-15------------------------------------------------------------------|
D|---------------------------------------------------------------------------|
A|---------------------------------------------------------------------------|
E|---------------------------------------------------------------------------|


E|-19b21-17 ---------------------------------------14------------------------|
B|----------19-17-21pb19-17-17-14-14----------17b19---17b19 17b19------------|
G|-----------------------------------16b18-14--------------------------------|
D|---------------------------------------------------------------------------|
A|---------------------------------------------------------------------------|
E|---------------------------------------------------------------------------|


E|-14------------14---------------17-----17-----17-----17-16b19--------------|
B|---17-14--14-17--17b19x2---17b19--17b19--17b19--17b19----------------------|
G|--------16-----------------------------------------------------------------|
D|---------------------------------------------------------------------------|
A|---------------------------------------------------------------------------|
E|---------------------------------------------------------------------------|


E|---------------------------------------------------------------------------|
B|-----------------------------15-15-15-15-14-14-14-14-----------------------|
G|-----------------------------14-14-14-14-13-13-13-13-----------------------|
D|-16-14----------------14-16------------------------------back to chords----|
A|-------16-14----14-16------------------------------------------------------|
E|-------------17------------------------------------------------------------|

  • 1
  • 2
  • 3
  • 4
  • 5
  • 6
  • 7
  • 8
  • 9
  • 10
  • 11
  • 12
    Acordes para:
      Colaboração e revisão:
      • gabriel.correaleite

      0 comentários

        mostrar mais comentários

        Conseguiu tocar?

        0tocaram0ainda não

        Grave um vídeo tocando Don't Matter e mande pra gente!

        00:00 / 00:00
        outros vídeos desta música
        repetirqualidadeautomática
        • automática
        Outro vídeos desta música
          00:00 / 00:00
          automática
          • automática
          Acordes para:violão e guitarra
          dificuldadeexibiçõescontribuições
          1 versão de Tab de baixoexibiçõescontribuições
          fecharplay/pause subir/descer velocidade
            Acordes para:violão e guitarra
            acordes
            fechar
            OK