Cifra Club

Don't Matter

Kings Of Leon

Tab de baixo: Principal
exibições 6
Intro

G|--------------------------------|
D|--------------------------------|
A|-12\----5(x8)--4(x8)--/9(x16)---|
E|--------------------------------|

G|--------------------------------|
D|--------------------------------|
A|----5(x8)--4(x8)--/9(x16)-------|
E|--------------------------------|

Verso 1:

G|--------------------------------|
D|--------------------------------|
A|----5(x8)--4(x8)--/9(x16)-------|  X 4
E|--------------------------------|

Refrão:

Cus it's always the same...

G|--------------------------------|
D|--------------------------------|
A|------------------/9(x16)-------|
E|----5(x8)--4(x8)----------------|

G|--------------------------------|
D|--------------------------------|
A|-----------------/5(x8)--4(x8)--|
E|----5(x8)--4(x8)----------------|

G|--------------------------------|
D|--------------------------------|
A|---/9(x32)----------------------|
E|--------------------------------|

Verso 2:

G|--------------------------------|
D|--------------------------------|
A|-12\----5(x8)--4(x8)--/9(x16)---|
E|--------------------------------|

G|--------------------------------|
D|--------------------------------|
A|----5(x8)--4(x8)--/9(x16)-------|  x 2
E|--------------------------------|

Refrão:

Cus it's always the same...

G|--------------------------------|
D|--------------------------------|
A|------------------/9(x16)-------|
E|----5(x8)--4(x8)----------------|

G|--------------------------------|
D|--------------------------------|
A|-----------------/5(x8)--4(x8)--|
E|----5(x8)--4(x8)----------------|

G|--------------------------------|
D|--------------------------------|
A|---/9(x32)----------------------|
E|--------------------------------|

Solo

G|--------------------------------|
D|--------------------------------|
A|----5(x8)--4(x8)--/9(x16)-------|  x 2
E|--------------------------------|

G|--------------------------------|
D|--------------------------------|
A|------------------/9(x16)-------|
E|----5(x8)--4(x8)----------------|

G|---------------------------------------------------------------------------|
D|---------------------------------------------------------------------------|
A|-----------------------------------9-9-9-9-9-9-9-9-9-9-9-9-9-9-9-9---------|
E|--5-5-5-5---------4-4-4-4--------------------------------------------------|

G|---------------------------------------------------------------------------|
D|---------------------------------------------------------------------------|
A|----5-4---5-4---4---5-4---5-4---4-/9-9-9-9-9-9-9-9-9-9-9-9-9-9-9-9---------|
E|--5-----5-----5---4-----4-----4--------------------------------------------|

Verso 3:

G|--------------------------------|
D|--------------------------------|
A|----5(x8)--4(x8)--/9(x16)-------|  X 4
E|--------------------------------|

Ending

Cus it's always the same...

G|--------------------------------|
D|--------------------------------|
A|-12\---------------/9(x16)------|
E|-----5(x8)--4(x8)---------------|

G|--------------------------------|
D|--------------------------------|
A|-----------------/5(x8)--4(x8)--|
E|----5(x8)--4(x8)----------------|

G|--------------------------------|
D|--------------------------------|
A|---9-9-9-9----------------------|
E|--------------------------------|
Colaboração e revisão:
  • Gabriel Leite

0 comentários

    mostrar mais comentários

    Conseguiu tocar?

    0tocaram0ainda não

    Grave um vídeo tocando Don't Matter e mande pra gente!

    00:00 / 00:00
    outros vídeos desta música
    repetirqualidadeautomática
    Outro vídeos desta música
      00:00 / 00:00
      automática
      OK