Cifra Club

Family Tree

Kings Of Leon

Tab de baixo: Principal
exibições 21
Intro:
G|------|
D|------|
A|------|
E|-5/---|

G|-----------------------------------|
D|------14---12----------------------|
A|----------------14-12-10b----------|(x8)
E|--0-0----0----0--------------------|

Verso 1:
I'll tell you now that I don't understand...
G|-----------------------------------|
D|------14---12----------------------|
A|----------------14-12-10b----------|(x4)
E|--0-0----0----0--------------------|

G|-----------------------------------|
D|------14---12----------------------|
A|--0-0----0----0-14-12-10b----------|(x2)
E|-----------------------------------|

G|-----------------------------------|
D|------14---12----------------------|
A|----------------14-12-10b----------|(x6)
E|--0-0----0----0--------------------|

G|-----------------------------------|
D|------14---12----------------------|
A|--0-0----0----0-14-12-10b----------|(x2)
E|-----------------------------------|

G|-----------------------------------|
D|------14---12----------------------|
A|----------------14-12-10b----------|(x2)
E|--0-0----0----0--------------------|

G|-----------------------------------|
D|-----------------------------------|
A|-----------------------------------|
E|--7-7-7-7-7-7-7-7-5-5-5-5-5-5-5-5--|

G|-----------------------------------|
D|------14---12----------------------|
A|----------------14-12-10b----------|(x2)
E|--0-0----0----0--------------------|

Refrão:

(I am your family tree...)
G|-----------------------------------|
D|------14---12----------------------|
A|----------------14-12-10b----------|(x4)
E|--0-0----0----0--------------------|

G|-----------------------------------|
D|------14---12----------------------|
A|--0-0----0----0-14-12-10b----------|(x2)
E|-----------------------------------|

G|-----------------------------------|
D|------14---12----------------------|
A|----------------14-12-10b----------|(x2)
E|--0-0----0----0--------------------|

G|-----------------------------------|
D|-----------------------------------|
A|-----------------------------------|
E|--7-7-7-7-7-7-7-7-5-5-5-5-5-5-5-5--|

G|-----------------------------------|
D|------14---12----------------------|
A|----------------14-12-10b----------|(x2)
E|--0-0----0----0--------------------|

Verso 2:
(It's a pretty day…)
G|-----------------------------------|
D|------14---12----------------------|
A|----------------14-12-10b----------|(x4)
E|--0-0----0----0--------------------|

G|-----------------------------------|
D|------14---12----------------------|
A|--0-0----0----0-14-12-10b----------|(x2)
E|-----------------------------------|

G|-----------------------------------|
D|------14---12----------------------|
A|----------------14-12-10b----------|(x2)
E|--0-0----0----0--------------------|

G|-----------------------------------|
D|-----------------------------------|
A|-----------------------------------|
E|--7-7-7-7-7-7-7-7-5-5-5-5-5-5-5-5--|

G|-----------------------------------|
D|------14---12----------------------|
A|----------------14-12-10b-7--------|  
E|--0-0----0----0--------------------|

Refrão:

I am your family tree...
G|------|
D|-19\--|
A|------|
E|------|

G|-----------------------------------|
D|------14---12----------------------|
A|----------------14-12-10b----------|(x4)
E|--0-0----0----0--------------------|

G|-----------------------------------|
D|------14---12----------------------|
A|--0-0----0----0-14-12-10b----------|(x2)
E|-----------------------------------|

G|-----------------------------------|
D|------14---12----------------------|
A|----------------14-12-10b----------|(x2)
E|--0-0----0----0--------------------|

G|-----------------------------------|
D|-----------------------------------|
A|-----------------------------------|
E|--7-7-7-7-7-7-7-7-5-5-5-5-5-5-5-5--|

Solo:
G|-----------------------------------|
D|-----------------------------------|
A|----------------------10b----------|(x2)
E|-----------------------------------|

G|-----------------------------------|
D|-----------------------------------|
A|--10-------------------------------|(x2)
E|-----12-10-12---10-7-10---7-5-3----|

Refrão:

I am your family tree...
Rest until 3:10
G|-----------------------------------|
D|-----------------------------------|
A|--------0-2-4-5-7------------------|
E|--0-2-3----------------------------|

G|-----------------------------------|
D|------14---12----------------------|
A|----------------14-12-10b----------|(x4)
E|--0-0----0----0--------------------|

G|-----------------------------------|
D|------14---12----------------------|
A|--0-0----0----0-14-12-10b----------|(x2)
E|-----------------------------------|

G|-----------------------------------|
D|------14---12----------------------|
A|----------------14-12-10b----------|(x2)
E|--0-0----0----0--------------------|

G|-----------------------------------|
D|-----------------------------------|
A|-----------------------------------|
E|--7-7-7-7-7-7-7-7-5-5-5-5-5-5-5-5--|

G|-----------------------------------|
D|------14---12----------------------|
A|----------------14-12-10b----------|(x2)
E|--0-0----0----0--------------------|

G|-----------------------------------|
D|-----------------------------------|
A|-----------------------------------|
E|--7-7-7-7-7-7-7-7-5-5-5-5-5-5-5-5--|

G|------|
D|------|
A|------|
E|--0---|

Colaboração e revisão:
  • Gabriel Leite

0 comentários

    mostrar mais comentários

    Conseguiu tocar?

    0tocaram0ainda não

    Grave um vídeo tocando Family Tree e mande pra gente!

    00:00 / 00:00
    outros vídeos desta música
    repetirqualidadeautomática
    Outro vídeos desta música
      00:00 / 00:00
      automática
      OK