Cifra Club

Happy Alone

Kings Of Leon

Tab de baixo: Principal
exibições 331
(intro)

G|---------------|---------------|---------------|---------------|
D|---------------|---------------|---------------|---------------|
A|---------------|---------------|---------------|---------------|
E|10-------------|---------------|10-------------|---------------|

G|---------------|---------------|---------------|---------------|
D|---------------|---------------|---------------|---------------|
A|---------------|---------------|---------------|---------------|
E|3--------------|--------------0|3--------------|---------------|

(1st verse)
G|---------------|---------------|---------------|---------------|
D|---------------|---------------|---------------|---------------|
A|---------------|-------------12|---------------|---------------|
E|10-------------|---------------|10-------------|-------12--10--|

G|---------------|---------------|---------------|---------------|
D|---------------|---------------|---------------|---------------|
A|---------------|---------------|---------------|---------------|
E|3--------------|--------------2|3--------------|---------5--7--|

G|---------------|---------------|---------------|---------------|
D|---------------|---------------|---------------|---------------|
A|---------------|-------------12|---------------|---------------|
E|10-------------|---------------|10-------------|-------12--10--|

G|---------------|---------------|---------------|--------------------|
D|---------------|---------------|---------------|----5-----------7---|
A|---------------|---------------|---------------|5/7----75-5-7/9---9-|
E|3--------------|--------------2|3--------------|--------------------|

(chorus)
G|---------------------|     
D|---------------------|
A|---------------------|
E|10-10-10-10-10-7-5-7-| (x3) 

G|---------------|
D|---------------|
A|---------------|
E|8-7-5-7-8-7-5-7| (x1)

G|---------------------|     
D|---------------------|
A|---------------------|
E|10-10-10-10-10-7-5-7-| (x3) 

G|---------------|
D|---------------|
A|---------------|
E|8-7-5-7-8-7-5-7| (x1)

(2nd verse)
G|------------------------|-----------------------|
D|------------------------|-----------------------|
A|------------------------|------------------12-12|
E|10-10-10-10-10-10-10-10-|10-10-10-10-10-10------|

G|------------------------|-----------------------|
D|------------------------|-----------------------|
A|------------------------|-----------------------|
E|10-10-10-10-10-10-10-10-|10-10-10-10-10-10-12-12|

G|--------------|--------------|--------------|----------------|
D|--------------|--------------|--------------|----------------|
A|--------------|--------------|--------------|----------------|
E|3-3-3-3-3-3-3-|3-3-3-3-3-3-2-|3-3-3-3-3-3-3-|3-3-5-5-7-7-9-9-|

G|------------------------|----------------------|
D|------------------------|----------------------|
A|------------------------|------------------9-9-|
E|10-10-10-10-10-10-10-10-|10-10-10-10-10-10-----|

G|------------------------|-----------------------|
D|------------------------|-----------------------|
A|------------------------|-----------------------|
E|10-10-10-10-10-10-10-10-|10-10-10-10-10-10-12-12|

G|----------------|----------------|------------------|
D|----------------|----------------|----5---------7---|
A|----------------|--------------5-|5/7----75-7/9---97|
E|3-3-3-3-3-3-3-3-|3-3-3-3-3-3-3---|------------------|

(chorus)
G|---------------------|     
D|---------------------|
A|---------------------|
E|10-10-10-10-10-7-5-7-| (x3) 

G|---------------|
D|---------------|
A|---------------|
E|8-7-5-7-8-7-5-7| (x1)

G|---------------------|     
D|---------------------|
A|10-10-10-10-10-7-5-7-|
E|---------------------| (x3) 

G|---------------|
D|---------------|
A|8-7-5-7-8-7-5-7|
E|---------------| (x1)

G|---------------------|     
D|---------------------|
A|---------------------|
E|10-10-10-10-10-7-5-7-| (x3) 

G|---------------|
D|---------------|
A|---------------|
E|8-7-5-7-8-7-5-7| (x1)

G|---------------------|     
D|---------------------|
A|10-10-10-10-10-7-5-7-|
E|---------------------| (x3) 

G|---------------|
D|---------------|
A|8-7-5-7-8-7-5-7|
E|---------------| (x1)

(bridge)
G|---------------|---------------|-------------------|-------------------|
D|---------------|---------------|-------------------|-------------------|
A|---------------|---------------|-------------------|-------------------|
E|7--------------|5--------------|10-10-10-----7-5-7-|10-10-10-----7-5-7-|

G|---------------|---------------|---------------|---------------|
D|---------------|---------------|---------------|---------------|
A|---------------|---------------|---------------|---------------|
E|3--------------|5--------------|7--------------|---------------|

(2nd intro)
G|---------------|---------------|---------------|---------------|
D|---------------|---------------|---------------|---------------|
A|---------------|---------------|---------------|---------------|
E|10-------------|---------------|10-------------|---------------|

G|---------------|---------------|---------------|-----------------|
D|---------------|---------------|---------------|----5--------7---|
A|---------------|---------------|---------------|5/7---75-7/9---97|
E|3--------------|---------------|3------------3-|-----------------|

(chorus)
G|---------------------|     
D|---------------------|
A|---------------------|
E|10-10-10-10-10-7-5-7-| (x3) 

G|---------------|
D|---------------|
A|---------------|
E|8-7-5-7-8-7-5-7| (x1)

G|---------------------|     
D|---------------------|
A|10-10-10-10-10-7-5-7-|
E|---------------------| (x3) 

G|---------------|
D|---------------|
A|8-7-5-7-8-7-5-7|
E|---------------| (x1)

G|---------------------|     
D|---------------------|
A|---------------------|
E|10-10-10-10-10-7-5-7-| (x3) 

G|---------------|
D|---------------|
A|---------------|
E|8-7-5-7-8-7-5-7| (x1)

G|---------------------|     
D|---------------------|
A|10-10-10-10-10-7-5-7-|
E|---------------------| (x3) 

G|---------------|
D|---------------|
A|8-7-5-7-8-7-5-7|
E|---------------| (x1)

(end)
G|------------------------|
D|------------------------|
A|12-12-14-14-16-16-17-17-|
E|------------------------| (x4)

G|------------------|
D|------------------|
A|10-10-9-9-7-7-5-5-|
E|------------------| (x3)

G|--------------------|
D|--------------------|
A|10-10-9-9-7-7-14-14-|
E|--------------------| (x1)

G|------------------------|
D|------------------------|
A|12-12-14-14-16-16-17-17-|
E|------------------------| (x3)

G|------------------------|
D|------------------------|
A|------------------------|
E|12----------------------|
Composição: Caleb Followill / Nathan FollowillColaboração e revisão:
  • BRUNO SILVA

0 comentários

    mostrar mais comentários

    Conseguiu tocar?

    0tocaram0ainda não

    Grave um vídeo tocando Happy Alone e mande pra gente!

    00:00 / 00:00
    outros vídeos desta música
    repetirqualidadeautomática
    Outro vídeos desta música
      00:00 / 00:00
      automática
      OK