Cifra Club

I Want You

Kings Of Leon

Cifra: Principal
exibições 4.687
Tom: A
Intro:
E|--------------------------------------------------------------------------|
B|--------------------------------------------------------------------------|
G|--------------------------------------------------------------------------|
D|-----------------------------------------------0---0-------2---2----------|
A|---------0----------0----------0---------0---2---2---2-2h3---3---------0--|
E|--/3--3-3---/3--3-3----/3--3-3---/3--3-3-------------------------3-3-3---3|

Verso 1:
E|---------------------------------------------------------------------------|
B|---------------------------------------------------------------------------|
G|---------------------------------------------------------------------------|
D|---------------------------------------------------------------------------|
A|----5---5------7---7------------0------------------------------------------|
E|--/7---7---7h8---8-----3--3--3-3---3---------------------------------------|

Verso 2:     1:29
E|---------------------------------------------------------------------------|
B|---------------------------------------------------------------------------|
G|---------------------------------------------------------------------------|
D|---------------------------------------------------------------------------|
A|---------2-2-2-2-2-3-3-3---------------------------------------------------|
E|---3-3-3-----------------2-2-2-2-2--------3--------------------------------|
                                            let ring
     1:39
E|---------------------------------------------------------------------------|
B|---------------------------------------------------------------------------|
G|---------------------------------------------------------------------------|
D|---------------------------------------------------------------------------|
A|----------2-2-2-2-2-3-3-3--------------------------------------------------|
E|----3-3-3-----------------2-2-2-2-2-------3--------------------------------|
                                            let ring
    1:48
E|---------------------------------------------------------------------------|
B|---------------------------------------------------------------------------|
G|---------------------------------------------------------------------------|
D|---------------------------------------------------------------------------|
A|----------2-2-2-2-2-3-3-3--------------------------------------------------|
E|----3-3-3-----------------2-2-2-2-2-------3--------------------------------|
                                            let ring
    1:59
E|---------------------------------------------------------------------------|
B|---------------------------------------------------------------------------|
G|---------------------------------------------------------------------------|
D|---------------------------------------------------------------------------|
A|----------2-2-2-2-2-3-3-3--------------------------------------------------|
E|----3-3-3-----------------2-2-2-2-2-------3--------------------------------|
                                            let ring

Refrão:

(Guitarra 1)
E|--------------------------------------------------------------------------|
B|---10-10-101010-10-10-8-----10-10-101010-10-10-8----10-10-101010-10-10-8--|
G|--------------------------------------------------------------------------|
D|--------------------------------------------------------------------------|
A|--------------------------------------------------------------------------|
E|--------------------------------------------------------------------------|

E|--------------------------------------------------------------------------|
B|---12-12-101010-10-10-8-------repeat-2X-----------------------------------|
G|--------------------------------------------------------------------------|
D|--------------------------------------------------------------------------|
A|--------------------------------------------------------------------------|
E|--------------------------------------------------------------------------|

(Guitarra 2)
E|---------------------------------------------------------------------------|
B|---------------------------------------------------------------------------|
G|---------------------------------------------------------------------------|
D|---------------------------------------------------------------------------|
A|---------------------------------------------------------------------------|
E|--3--3----3--3----3--3----3--3----3--3-----3--3----3--3-----3--3------3--3-|

(Guitarra 1)
E|--------------------------------------------------------------------------|
B|----8-----8--8--8----8-----8--8---8----8-----8--8---8----8-----8--8---8---|
G|------7----7--7--------7----7--7---------7----7--7---------7----7--7------|
D|-/9-----9---9--9--/9-----9---9--9---/9-----9---9--9---/9-----9---9--9-----|
A|--------------------------------------------------------------------------|
E|--------------------------------------------------------------------------|

(Guitarra 2)
E|---------------------------------------------------------------------------|
B|---------------------------------------------------------------------------|
G|---------------------------------------------------------------------------|
D|---------------------------------------------------------------------------|
A|---------0--------0---------0--------0------5---5------7---7----------0----|
E|--3--3-3----3-3-3-----3-3-3----3-3-3-----/7---7----7h8---8-----3--3-3----3-|

Verso 3:
E|--------------------------------------------------------------------------|
B|--------------------------------------------------------------------------|
G|-----------------------------------------repeat--8X-----------------------|
D|--------------------------------------------------------------------------|
A|----------2-2-2-2-2-3-3-3-------------------------------------------------|
E|----3-3-3-----------------2-2-2-2-2---------------------------------------|

Refrão:

(Guitarra 1)
E|--------------------------------------------------------------------------|
B|---10-10-101010-10-10-8-----10-10-101010-10-10-8----10-10-101010-10-10-8--|
G|--------------------------------------------------------------------------|
D|--------------------------------------------------------------------------|
A|--------------------------------------------------------------------------|
E|--------------------------------------------------------------------------|

E|--------------------------------------------------------------------------|
B|---12-12-101010-10-10-8-------repeat-2X-----------------------------------|
G|--------------------------------------------------------------------------|
D|--------------------------------------------------------------------------|
A|--------------------------------------------------------------------------|
E|--------------------------------------------------------------------------|

(Guitarra 2)
E|---------------------------------------------------------------------------|
B|---------------------------------------------------------------------------|
G|---------------------------------------------------------------------------|
D|---------------------------------------------------------------------------|
A|---------------------------------------------------------------------------|
E|--3--3----3--3----3--3----3--3----3--3-----3--3----3--3-----3--3------3--3-|

(Guitarra 1)
E|---15--15-15-17---15--15-15-17---15--15-15-17--15--15-15-17---repeat2X-----|
B|---------------------------------------------------------------------------|
G|---------------------------------------------------------------------------|
D|---------------------------------------------------------------------------|
A|---------------------------------------------------------------------------|
E|---------------------------------------------------------------------------|

(Guitarra 2)
E|---------------------------------------------------------------------------|
B|---------------------------------------------------------------------------|
G|---------------------------------------------------------------------------|
D|---------------------------------------------------------------------------|
A|---------2-2-2-2-2-3-3-3------------------2-2-2-2-2-3-3-3------------------|
E|---3-3-3-----------------2-2-2-2-2--3-3-3-----------------2-2-2-2-2--------|

E|--------------------------------------------------------------------------|
B|---10-10-101010-10-10-8-----10-10-101010-10-10-8----10-10-101010-10-10-8--|
G|--------------------------------------------------------------------------|
D|--------------------------------------------------------------------------|
A|--------------------------------------------------------------------------|
E|--------------------------------------------------------------------------|

E|--------------------------------------------------------------------------|
B|---12-12-101010-10-10-8-------repeat-5X-----------------------------------|
G|--------------------------------------------------------------------------|
D|--------------------------------------------------------------------------|
A|--------------------------------------------------------------------------|
E|--------------------------------------------------------------------------|

Solo:
(Guitarra
 2)
E|--------------------------------------------------------------------------|
B|--15-15-15----------------------------------------------------------------|
G|------------12-12-12-12-----------12/15-15-15-15---15b---repeat-4X--------|
D|------------------------14-14-14------------------------------------------|
A|--------------------------------------------------------------------------|
E|--------------------------------------------------------------------------|

E|---------------------------------------------------------------------------|
B|---------------------------------------------------------------------------|
G|---------------------------------------------------------------------------|
D|---------------------------------------------------------------------------|
A|---------0--------0---------0--------0------5---5------7---7----------0----|
E|--3--3-3----3-3-3-----3-3-3----3-3-3-----/7---7----7h8---8-----3--3-3----3-|
Acordes para:

    0 comentários

      mostrar mais comentários

      Conseguiu tocar?

      1tocaram1ainda não

      Grave um vídeo tocando I Want You e mande pra gente!

      00:00 / 00:00
      outros vídeos desta música
      repetirqualidadeautomática
      Outro vídeos desta música
        00:00 / 00:00
        automática
        OK