Cifra Club

Knocked Up

Kings Of Leon

Tab de baixo: Principal
exibições 1.063
This song is really easy and pretty fun to play.  Im 100% sure this song is correct.

Intro - 0:09 - I like playing this line throughout the song an octave lower starting at 
open E but the bassist plays this:

---9--9--9--9--9--9--9--13--13--13--13--13--13--13--13---------|
---------------------------------------------------------------|
-7--7--7--7--7--7--7--11--11--11--11--11--11--11--11-----------|
---------------------------------------------------------------|
slide to the A flat

Verse 1 - 0:51 - same as intro

---9--9--9--9--9--9--9--13--13--13--13--13--13--13--13---------|
---------------------------------------------------------------|
-7--7--7--7--7--7--7--11--11--11--11--11--11--11--11-----------|
---------------------------------------------------------------|

Chorus - 2:04 - not 100% sure
---------------------------------------------------------------|
------------------------------------------------------2--------|
-4----2-------4----2--------------------2h4---------------4----|
----4----4--0----4----4--0----0--2--4---------0--2--4----------|


Verse 2: 2:20 - same as Verse 1 except you add an A at the end like so:

---9--9--9--9--9--9--9--13--13--13--13--13--13--14--14---------|
---------------------------------------------------------------|
-7--7--7--7--7--7--7--11--11--11--11--11--11--12--12-----------|
---------------------------------------------------------------|

Chorus - 2:59 - same as first chorus but afterwords you play the same thing as verse 1 
so:

---------------------------------------------------------------|
------------------------------------------------------2--------|
-4----2-------4----2--------------------2h4---------------4----|
----4----4--0----4----4--0----0--2--4---------0--2--4----------|


---9--9--9--9--9--9--9--13--13--13--13--13--13--13--13--14--14----|
---------------------------------------------------------------|
-7--7--7--7--7--7--7--11--11--11--11--11--11--11--11--12--12-------|
---------------------------------------------------------------|


Interlude - 3:30 - play this for about 2 and a half minutes

---9--9--9--9--9--9--9--13--13--13--13--13--13--14--14---------|
---------------------------------------------------------------|
-7--7--7--7--7--7--7--11--11--11--11--11--11--12--12-----------|
---------------------------------------------------------------|


Verse 3 - 5:58 - same as verse 1

---9--9--9--9--9--9--9--13--13--13--13--13--13--13--13---------|
---------------------------------------------------------------|
-7--7--7--7--7--7--7--11--11--11--11--11--11--11--11-----------|
---------------------------------------------------------------|

Outro - 6:37 - same as verse 2

---9--9--9--9--9--9--9--13--13--13--13--13--13--14--14---------|
---------------------------------------------------------------|
-7--7--7--7--7--7--7--11--11--11--11--11--11--12--12-----------|
---------------------------------------------------------------|


And that's it, nice and simple, mainly just roots and octaves. Please email me at

0 comentários

    mostrar mais comentários

    Conseguiu tocar?

    0tocaram0ainda não

    Grave um vídeo tocando Knocked Up e mande pra gente!

    00:00 / 00:00
    outros vídeos desta música
    repetirqualidadeautomática
    Outro vídeos desta música
      00:00 / 00:00
      automática
      OK