Cifra Club

Last Mile Home

Kings Of Leon

Cifra: Principal
exibições 209
Tom: A (com acordes na forma de G) Capotraste na 2ª casa
Intro: G  Bm  Am  A#m  D

E|---------12--------------------------------------|    
B|---10~------9-----12-----------------------------|
G|--------------------------11~--------14----------|
D|-------------------------------------------------|  
A|-------------------------------------------------|
E|-------------------------------------------------|

E|---9---------7---------5---------2---------------|    
B|--------9---------7---------5---------2----5-----|
G|-------------------------------------------------|
D|-------------------------------------------------|  
A|-------------------------------------------------|
E|-------------------------------------------------|

Verso:

G
Take it back, I never meant it
Bm
Never thought it would come to pass
Am
Baby know its not forgotten
D
Baby know that this is gonna last

( G  Bm  A#m  Am  D )

G
By and large I had it coming
Bm
I recall the tremble in your eyes
Am
I just want to make it better
D
I just want to make it right

G                           Bm                       Bm A#m
Dreaming on the mile home, dreaming on the mile home
Am
Things are always better when were all together
      D
I'm dreaming on the last mile home

( G  Bm  Am  A#m  D )

G
Tell me that the bar is drinking 
Bm
And the lights are swinging in the smoke
Am
I'm a fool for conversation
D
And Ive got nowhere to go

Refrão 2x:

G                           Bm                       Bm A#m
Dreaming on the mile home, dreaming on the mile home
Am
Things are always better when were all together
      D
I'm dreaming on the last mile home

Ponte: C  G  C  G  A#m

Refrão 2x:

G                           Bm                       Bm A#m
Dreaming on the mile home, dreaming on the mile home
Am
Things are always better when were all together
      D
I'm dreaming on the last mile home

G
Baby Im the one who's broken
Bm
Maybe I'm the breaker of the hearts
Am
Been so lone since we've last spoken 
D
It's been lonely, baby it's been hard

( G  Bm  A#m  Am  D )
Acordes para:
    Colaboração e revisão:
    • Guilherme Rodrigues

    0 comentários

      mostrar mais comentários

      Conseguiu tocar?

      0tocaram0ainda não

      Grave um vídeo tocando Last Mile Home e mande pra gente!

      00:00 / 00:00
      outros vídeos desta música
      repetirqualidadeautomática
      Outro vídeos desta música
        00:00 / 00:00
        automática
        OK