Cifra Club

Milk

Kings Of Leon

Tab de baixo: Principal
exibições 827
Verse:
G-------------------------------------------|
D-------------------------------------------|
A-------------------------------------------|
E--7-7-7-7-9-9-9-9-10-10-10-10-10--10-10-10-|

G--------------------|
D--------------------|
A--------------------|
E--7-7-7-7-9-9-9-9-7-|

Chorus:
G-------------------------|
D------------4-4----------|
A------5---7------7-5---5-|
E--5-7---7------------7---|

0 comentários

    mostrar mais comentários

    Conseguiu tocar?

    0tocaram0ainda não

    Grave um vídeo tocando Milk e mande pra gente!

    00:00 / 00:00
    outros vídeos desta música
    repetirqualidadeautomática
    Outro vídeos desta música
      00:00 / 00:00
      automática
      OK