Cifra Club

Sex On Fire

Kings Of Leon

Tab de baixo: Principal
exibições 29.799
Introdução 

Parte 01

G|----------------------------------------------|
D|----------------------------------------------|
A|------------------------11-11--7-7--7-7--7-7--|
E|-9-9\--3/9-9--9-9--9-9------------------------|

G|----------------------------------------------|
D|----------------------------------------------|
A|-7-7--11-11----------------------11-11--------|
E|-------------9-9--9-9--9-9--9-9---------------|

Primeira parte

Lay where you're laying...

Parte 01

G|----------------------------------------------|
D|----------------------------------------------|
A|-7-7--7-7--7-7--7-7--11-11--------------------|
E|----------------------------9-9--9-9--9-9--9-9|

G|----------------------------------------------|
D|----------------------------------------------|
A|-11-11--7-7-7-7--7-7-7-7--7-7-7-7--7-7-7-7----|
E|----------------------------------------------|

Parte 02

G|----------------------------------------------|
D|----------------------------------------------|
A|-7-7-7-7--7-7-7-7--7-7-7-7--7-7-7-7-----------|
E|----------------------------------------------|

G|----------------------------------------------|
D|----------------------------------------------|
A|----------------------------------------------|
E|-9-9-9-9--9-9-9-9--9-9-9-9--9-9-9-9--9-9-9-9--|

G|----------------------------------------------|
D|----------------------------------------------|
A|------------------------11-11-----------------|
E|-9-9-9-9--9-9-9-9--9-9------------------------|

Refrão 

You,your sex is on fire...

Parte 01

G|----------------------------------------------|
D|----------------------------------------------|
A|-7-7-7-7--7-7-7-7--7-7-7-7--7-7/11-11---------|
E|----------------------------------------------|

G|----------------------------------------------|
D|-------------------------------9-11-----------|
A|-7-7-7-7--7-7-7-7--7-7-7/11-11----------------|
E|----------------------------------------------|

Parte 02

G|----------------------------------------------|
D|----------------------------------------------|
A|----------------------------------------------|
E|-9-9-9-9--9-9-9-9--9-9-9-9--9-9-9-9-----------|

G|----------------------------------------------|
D|----------------------------------------------|
A|----------------------------------------------|
E|-5-5-5-5--5-5-5-5--5-5-5-5--5-5-5-5-----------|

Segunda parte

The dark of the alley...

Parte 01

G|----------------------------------------------|
D|----------------------------------------------|
A|-7-7--7-7--7-7--7-7--11-11--------------------|
E|----------------------------9-9--9-9--9-9--9-9|

G|----------------------------------------------|
D|----------------------------------------------|
A|-11-11\-7-7-7-7--7-7-7-7--7-7-7-7--7-7-7-7----|
E|----------------------------------------------|

Parte 02

G|----------------------------------------------|
D|----------------------------------------------|
A|-7-7-7-7--7-7-7-7--7-7-7-7--7-7/11-11---------|
E|----------------------------------------------|

G|----------------------------------------------|
D|----------------------------------------------|
A|----------------------------------------------|
E|-9-9-9-9--9-9-9-9--9-9-9-9--9-9-9-9--5-5-5-5--|

G|----------------------------------------------|
D|----------------------------------------------|
A|----------------------------------------------|
E|-5-5-5-5--5-5-5-5--5-5-5-5--------------------|

Refrão 02 ( tocar 2x )

You,your sex is on fire...

Parte 01

G|----------------------------------------------|
D|----------------------------------------------|
A|-7-7-7-7--7-7-7-7--7-7-7-7--7-7/11-11---------|
E|----------------------------------------------|

G|----------------------------------------------|
D|-------------------------------9-11-----------|
A|-7-7-7-7--7-7-7-7--7-7-7/11-11----------------|
E|----------------------------------------------|

Parte 02

G|----------------------------------------------|
D|----------------------------------------------|
A|----------------------------------------------|
E|-9-9-9-9--9-9-9-9--9-9-9-9--9-9-9-9-----------|

G|----------------------------------------------|
D|----------------------------------------------|
A|----------------------------------------------|
E|-5-5-5-5--5-5-5-5--5-5-5-5--5-5-5-5-----------|
                     5-3-4-5 (2a. vez)

Terceira parte

Hot as a fever...

Parte 01

G|----------------------------------------------|
D|----------------------------------------------|
A|-7-7--7-7--7-7--7-7--11-11--------------------|
E|----------------------------9-9--9-9--9-9--9-9|

G|----------------------------------------------|
D|----------------------------------------------|
A|-11-11--7-7-7-7--7-7-7-7--7-7-7-7--7-7-7-7----|
E|----------------------------------------------|

Parte 02

G|----------------------------------------------|
D|----------------------------------------------|
A|-7-7-7-7--7-7-7-7--7-7-7-7--7-7/11-11---------|
E|----------------------------------------------|

G|----------------------------------------------|
D|----------------------------------------------|
A|----------------------------------------------|
E|-9-9-9-9--9-9-9-9--9-9-9-9--9-9-9-9--5-5-5-5--|

G|----------------------------------------------|
D|----------------------------------------------|
A|----------------------------------------------|
E|-5-5-5-5--5-5-5-5--5-5-5-5--------------------|

Refrão 3

You,your sex is on fire...

Parte 01

G|----------------------------------------------|
D|----------------------------------------------|
A|-7-7-7-7--7-7-7-7--7-7-7-7--7-7/11-11---------|
E|----------------------------------------------|

G|----------------------------------------------|
D|-------------------------------9-11-----------|
A|-7-7-7-7--7-7-7-7--7-7-7/11-11----------------|
E|----------------------------------------------|

Parte 02

G|----------------------------------------------|
D|----------------------------------------------|
A|----------------------------------------------|
E|-9-9-9-9--9-9-9-9--9-9-9-9--9-9-9-9-----------|

G|----------------------------------------------|
D|----------------------------------------------|
A|----------------------------------------------|
E|-5-5-5-5--5-5-5-5--5-3-4-5--5-5-5-5-----------|

Parte 03

G|----------------------------------------------|
D|------------------------9-9-------------------|
A|-7-7--7-7--7-7\--2/7-7------------------------|
E|----------------------------9-9--9-9--9-9--9-9|

G|------------------------------------9---------|
D|-------------------------------9-11-----------|
A|-11-11--7-7--7-7--7-7--7-7--11----------------|
E|----------------------------------------------|

Parte 04

G|----------------------------------------------|
D|-11-11-11-11--11-11-11-11--11-11-11-11--------|
A|----------------------------------------------|
E|----------------------------------------------|

G|----------------------------------------------|
D|-11-11-11-11----------------------------------|
A|-------------12-12-12-12--12-12-12-12---------|
E|----------------------------------------------|

G|----------------------------------------------|
D|----------------------------------------------|
A|-12-12-12-12--12-12-12-12---------------------|
E|----------------------------------------------|

Refrão 04

You,your sex is on fire...

Parte 01

G|----------------------------------------------|
D|----------------------------------------------|
A|-7-7-7-7--7-7-7-7--7-7-7-7--7-7/11-11---------|
E|----------------------------------------------|

G|----------------------------------------------|
D|-------------------------------9-11-----------|
A|-7-7-7-7--7-7-7-7--7-7-7/11-11----------------|
E|----------------------------------------------|

Parte 02

G|----------------------------------------------|
D|----------------------------------------------|
A|----------------------------------------------|
E|-9-9-9-9--9-9-9-9--9-9-9-9--9-9-9-9-----------|

G|----------------------------------------------|
D|----------------------------------------------|
A|----------------------------------------------|
E|-5-5-5-5--5-5-5-5--5-5-5-5--5-5-5-5-----------|

Parte 03

G|----------------------------------------------|
D|----------------------------------------------|
A|-7-7-7-7--7-7-7-7--7-7-7-7--7-7/11-11---------|
E|----------------------------------------------|

G|----------------------------------------------|
D|-------------------------------9-11-----------|
A|-7-7-7-7--7-7-7-7--7-7-7/11-11----------------|
E|----------------------------------------------|

Parte 04

G|----------------------------------------------|
D|----------------------------------------------|
A|----------------------------------------------|
E|-9-9-9-9--9-9-9-9--9-9-9-9--9-9-9-9-----------|

G|----------------------------------------------|
D|----------------------------------------------|
A|-------------------------------------7-7------|
E|-5-5-5-5--5-5-5-5--5-3-4-5--5-5-5-5-----------|

0 comentários

    mostrar mais comentários

    Conseguiu tocar?

    3tocaram0ainda não

    Grave um vídeo tocando Sex On Fire e mande pra gente!

    00:00 / 00:00
    outros vídeos desta música
    repetirqualidadeautomática
    Outro vídeos desta música
      00:00 / 00:00
      automática
      Capítulos
      • Tocando a música
      • Dicas Iniciais / Equipamentos
      • Introdução
      • Primeira Parte - Parte 1 de 2
      • Primeira Parte - Parte 2 de 2
      • Refrão 1 - Parte 1 de 2
      • Refrão 1 - Parte 2 de 2
      • Segunda Parte - Parte 1 de 2
      • Segunda Parte - Parte 2 de 2
      • Refrão 2 - Parte 1 de 4
      • Refrão 2 - Parte 2 de 4
      • Refrão 2 - Parte 3 de 4
      • Refrão 2 - Parte 4 de 4
      • Refrão 3 - Parte 1 de 4
      • Refrão 3 - Parte 2 de 4
      • Refrão 3 - Parte 3 de 4
      • Refrão 3 - Parte 4 de 4
      • Refrão 4 - Parte 1 de 4
      • Refrão 4 - Parte 2 de 4
      • Refrão 4 - Parte 3 de 4
      • Refrão 4 - Parte 4 de 4
      • Encerramento
      • Ficha Técnica
      OK