Cifra Club

Supersoaker

Kings Of Leon

Tab de baixo: Principal
exibições 106
Supersoaker Bass Tab®

G|---------------------------------------------------------------------|
D|----------------------12-------------------12-11---------------------|
A|------------------12--------------------12----------12-11------------|
E|--5\10------10----------10-----10------------------------------------|

x3
G|----------------------------------------------------------------------------|
D|-----------7---------7-6---------------------12---------------12-11---------|
A|--------7---------7--------7-4----------12---------------12----------12-11--|
E|--5-5-------5-5----------------10-10----------10-10-------------------------|

G|-----------------------------------------------------|
D|-------------7------------------------7-6------------|
A|----------7------------------------7--------7-4------|
E|--5(x4)--------5(x3)-4-5(x4)-------------------------|

G|-----------------------------------------------------------------|
D|---------------12---------------------------12-11----------------|
A|-----------12---------------------------12----------12-11--------|
E|--10(x4)----------10(x3)-9-10(x4)--------------------------------|

G|-------------------------------------------------------------------|
D|-------------------------------------------------------------------|
A|-------------------------------------------------------------------|
E|--4-4-2\5(x14)-7(x2)-9(x14)-10(x2)-7(x16)-12(x8)-14(x3-12(x3)-9-7--|

G|----------------------------------------------------------------------------|
D|-----------7---------7-6---------------------12---------------12-11---------|
A|--------7---------7--------7-4----------12---------------12----------12-11--|
E|--5-5-------5-5----------------10-10----------10-10-------------------------|

G|-----------------------------------------------------|
D|-------------7------------------------7-6------------|
A|----------7------------------------7--------7-4------|
E|--5(x4)--------5(x3)-4-5(x4)-------------------------|

G|-----------------------------------------------------------------|
D|---------------12---------------------------12-11----------------|
A|-----------12---------------------------12----------12-11--------|
E|--10(x4)----------10(x3)-9-10(x4)--------------------------------|

G|----------------------------------------------------------------------|
D|----------------------------------------------------------------------|
A|----------------------------------------------------------------------|
E|--4-4-2\5(x14)-7(x2)-9(x14)-10(x2)-7(x16)-12(x16)---------------------|

G|------------------------------------------------------------------------------------|
D|------------------------------------------------------------------------------------|
A|------------------------------------------------------------------------------------|
E|--5(x14)-7(x2)-9(x14)-10(x2)-7(x16)-12(x8)-14(x3-12(x3)-9-7-------------------------|

x2
G|------------------------6-4-2-1-----------4--------------9-7-6--------------|
D|-----------7--------6-------------------4-------------9----------7\9--------|
A|--------7-----4-4-----------------2-2--------2\7-7--------------------------|
E|--5-5-----------------------------------------------------------------------|

G|------------------------------------------------------------------------------------|
D|------------------------------------------------------------------------------------|
A|------------------------------------------------------------------------------------|
E|--5(x14)-7(x2)-9(x14)-10(x2)-7(x16)-12(x8)-14(x3-12(x3)-9-7-------------------------|

G|-------------------------------------------------------------------------------|
D|-------------------------------------------------------------------------------|
A|-------------------------------------------------------------------------------|
E|--5(x14)-7(x2)-9(x14)-10(x2)-7(x16)-12(x8)-14(x3-12(x4)/-----------------------|

G|---------------------------------------------------------------------------------------|
D|---------------------------------------------------------------------------------------|
A|---------------------------------------------------------------------------------------|
E|--5(x14)-7(x2)-9(x14)-10(x2)-7(x16)-12(x8)-14(x3-12(x3)-9-7-5--------------------------|
Colaboração e revisão:
  • Gabriel Leite

0 comentários

    mostrar mais comentários

    Conseguiu tocar?

    0tocaram0ainda não

    Grave um vídeo tocando Supersoaker e mande pra gente!

    00:00 / 00:00
    outros vídeos desta música
    repetirqualidadeautomática
    Outro vídeos desta música
      00:00 / 00:00
      automática
      OK