Cifra Club

Aprenda

Forever

Kiss

Tab de bateria: Principal
HH|XXX-X---XXXXXXX-|--X-X-X-X-X-X-X-|
 B|----------------|0-------00------|
  1 + 2 + 3 + 4 +  1 + 2 + 3 + 4 +

HH|X-X-X-X-X-X-X-X-|X-X-X-X-X-X-X-X-|
 B|0-------00------|0-------00------|
   1 + 2 + 3 + 4 +  1 + 2 + 3 + 4 +

HH|XXX-X---XX------|
SN|------------0-0-| 
 B|0---------00----|
   1 + 2 + 3 + 4 +

CC|X---------------|----------------|X---------------|
HH|--X-X-X-X-X-X-X-|X-X-X-X-X-X-X---|--X-X-X-X-X-X-X-|
SN|----0-------0---|----0-------0-00|----0-------0---|
 B|0-------00------|0-------00------|0-------00------|
   1 + 2 + 3 + 4 +  1 + 2 + 3 + 4 +  1 + 2 + 3 + 4 +

HH|X-X-X-X-X-X-X---|
SN|----0-------0---|
T1|--------------0-|
T2|---------------0|
 B|0-------00------|
   1 + 2 + 3 + 4 +

(Chorus)
CC|X-------X-------|X-------X-------|X---------------|
HH|--X-X-X---X-X---|--X-X-X---X-X-X-|--X-X-X-X-X-X---|
SN|----0-------0-00|----0-------0---|----0-------0-00|
 B|00------0-------|00------0-------|00------0-------|
   1 + 2 + 3 + 4 +  1 + 2 + 3 + 4 +  1 + 2 + 3 + 4 +

CC|X---------------|X-------X-------|----------------|
HH|--X-X-X---------|--X-X-X---X-X-X-|X-X-X-X-X-X-X---|
SN|----0-----------|----0-------0---|----0-------0-00|
T1|--------000-----|----------------|----------------|
T2|------------000-|----------------|----------------|
 B|00--------------|00------0-------|00-------0------|
   1 + 2 + 3 + 4 +  1 + 2 + 3 + 4 +  1 + 2 + 3 + 4 + 

CC|X---------------|----------------|
HH|--X-X-X-X-X-X-X-|X-X-X-X-X-------|
SN|----0-------0---|------------0---|
 B|00------0-------|--------0-00----|
   1 + 2 + 3 + 4 +  1 + 2 + 3 + 4 + 

(Verse 2)
HH|X-X-X-X-X-X-X-X-| x4
   1 + 2 + 3 + 4 +

SN|0-0-0-0---------|
T1|--------0000----|
T2|------------00--|
T3|--------------00|
 B|0-0-0-0---------|
   1 + 2 + 3 + 4 + 

CC|X---------------|----------------|X---------------|
HH|--X-X-X-X-X-X-X-|X-X-X-X-X-X-X---|--X-X-X-X-X-X-X-|
SN|----0-------0---|----0-------0-00|----0-------0---|
 B|0-------00------|0-------00------|0-------00------|
   1 + 2 + 3 + 4 +  1 + 2 + 3 + 4 +  1 + 2 + 3 + 4 +

CC|----------------|X---------------|----------------|
HH|X-X-------------|--X-X-X-X-X-X-X-|X-X-X-X-X-X-X---|
SN|----00-0--------|----0-------0---|----0-------0-00|
T1|--------0000----|----------------|----------------|
T2|------------00--|----------------|----------------|
T3|--------------00|----------------|----------------|
 B|0---------------|0-------00------|0-------00------|
   1 + 2 + 3 + 4 +  1 + 2 + 3 + 4 +  1 + 2 + 3 + 4 + 

CC|X---------------|----------------|
HH|--X-X-X-X-X-X-X-|X-X-X-X-X-------|
SN|----0-------0---|----0-----0-0-0-|
 B|0-------00------|0-------000-0-0-|
   1 + 2 + 3 + 4 +  1 + 2 + 3 + 4 +

(Repeat chorus)

“Yeah, yeah, yeah”
T1|0-0-0-0-0-0-0-0-|
T3|0-0-0-0-0-0-0-0-|
   1 + 2 + 3 + 4 +

(Guitar solo)
CC|X---------------|----------------|----------------|
HH|--X-X-X-X-X-X-X-|X-X-X-X-X-X-X-X-|X-X-------------|
SN|----0-------0---|----0-------0---|----00-0--------|
T1|----------------|----------------|--------0000----|
T2|----------------|----------------|------------00--|
T3|----------------|----------------|--------------00|
 B|0-------00------|0-------00------|0---------------|
   1 + 2 + 3 + 4 +  1 + 2 + 3 + 4 +  1 + 2 + 3 + 4 +

CC|X---------------|----------------|X---------------|
HH|--X-X-X-X-X-X-X-|X-X-X-X-X-X-X---|--X-X-X-X-X-X-X-|
SN|----0-------0---|----0-------0-00|----0-------0---|
 B|0-------00------|0-------00------|0-------00------|
   1 + 2 + 3 + 4 +  1 + 2 + 3 + 4 +  1 + 2 + 3 + 4 +

HH|X-X-X-X-X-X-X-X-|X-X-X-X---------|
SN|----0-------0---|--------0-0-----|
T1|----------------|------------00--|
T2|----------------|--------------00|
 B|0-------00------|0---------------|
   1 + 2 + 3 + 4 +  1 + 2 + 3 + 4 +

(Verse 3)
CC|----------------|----------------|X---------------|
HH|----X-------X---|----X-----------|--X-X-X-X-X-X-X-|
SN|----0-------0---|----0-------0-00|----0-------0---|
 B|0-0-0---0-0-0---|0-0-0---0-0-----|0-------00------|
   1 + 2 + 3 + 4 +  1 + 2 + 3 + 4 +  1 + 2 + 3 + 4 + 

CC|----------------|X---------------|----------------|
HH|X-X-X-X-X-X-X---|----------------|----------------|
RC|----------------|--X-X-X-X-X-X-X-|X-X-X-X-X-X-----|
SN|----0-------0-00|----0---0---0---|0---0---0---0-00|
 B|0-------00------|0---------------|------------00--|
   1 + 2 + 3 + 4 +  1 + 2 + 3 + 4 +  1 + 2 + 3 + 4 + 

CC|X---------------|----------X-X-X-|
HH|--X-X-X-X-X-X-X-|----------------|
SN|----0-------0---|--------0-------|
T1|----------------|000-------------|
T2|----------------|----000---------|
 B|0-------00------|----------0-0-0-|
   1 + 2 + 3 + 4 +  1 + 2 + 3 + 4 + 

(Repeat Chorus twice)

(Outro)
CC|----------------|X---------------|X-X-------------|
HH|X-X-X-X-X-X-X-X-|--X-X-X-X-X-X-X-|----X-X-X-X-X-X-|
SN|----0-------0---|----0-------0---|----0-------0---|
 B|00------00------|00------00------|00------00------|
   1 + 2 + 3 + 4 +  1 + 2 + 3 + 4 +  1 + 2 + 3 + 4 + 

CC|----------X-X---|
HH|X-X-X-X---------|
SN|--------0-------|
 B|------00--------|
   1 + 2 + 3 + 4 +
Composição de Michael Bolton / Paul Stanley
Colaboração e revisão:
  • lucas silva
1.653 exibições

0 comentários

Mostrar mais comentários

Conseguiu tocar?

0 Tocaram 0 Ainda não

Grave um vídeo tocando Forever e mande pra gente!

00:00 / 00:00
outros vídeos desta música
repetir qualidade Automático
Outros vídeos desta música
00:00 / 00:00
Automático

Cifra Club Pro

Aproveite o Cifra Club com benefícios exclusivos e sem anúncios
7 dias grátis
Cifra Club Pro
Aproveite o Cifra Club com benefícios exclusivos e sem anúncios
7 dias grátis
OK