Cifra Club

I Will Be There

Kiss

Tab de baixo: Principal
Rhythm Fig. 1a
                                            
F|-----------------------------------------------|
C|-----------------------------------------------|
G|--------/5------------1------------------------|
C|--0--------------------------------------------|


                                           
F|-----------------------------------------------|
C|-----------------------------------------------|
G|----------------------------/5-----------------|
C|--3/5-----------5\----0------------------------|


Rhythm Fig. 1b
                                          
F|-----------------------------3-----------------|
C|-----------------------------------------------|
G|--------/5------------1------------------------|
C|--0--------------------------------------------|


                                            
F|-----------------------------------------------|
C|-----------------------------------------------|
G|----------------------1------0-----------------|
C|--3/5-------------------------------3--5-------|




Rhythm Fig. 1c
                                          
F|-----------------------------3-----------------|
C|-----------------------------------------------|
G|--------/5------------1------------------------|
C|--0--------------------------------------------|


                                             
F|-----------------------------------------------|
C|----------5------------------------------------|
G|-----------------------------/5----------------|
C|--3/5--------------3h5-0-----------------------|



Rhythm Fig. 1d
                                         
F|-----------------------------------------------|
C|-----------------------------------------------|
G|--------/5------------1------------------------|
C|--0--------------------------------------------|


                                             
F|-----------------------------------------------|
C|----------5------------------------------------|
G|-----------------------1------0----------------|
C|--3/5--------------------------------3--5------|



Rhythm Fig. 1e
                                          
F|-----------------------------3-----------------|
C|-----------------------------------------------|
G|--------/5------------1------------------------|
C|--0--------------------------------------------|


                                             
F|-----------------------------------------------|
C|----------5------------------------------------|
G|------------------------------/5---------------|
C|--3/5------------5--3---0----------------------|



Rhythm Fig. 2a
                                             
F|-----------------------------------------------|
C|-----------------------------------------------|
G|--------/5-------------------/5----------------|
C|--0---------------3p2--0---------------3/------|


                                            
F|-----------------------------------------------|
C|---------5--------------------5----------------|
G|------------------3h5--------------------------|
C|--5--------------------5-----------------------|



Rhythm Fig. 2b
                                             
F|-----------------------------------------------|
C|-----------------------------------------------|
G|--------/5-------------------/5----------------|
C|--0---------------3p2--0---------------3/------|


                                            
F|-----------------------------------------------|
C|---------5-------------------------------------|
G|----------------------3------2-----------------|
C|--5---------------------------------3--5-------|



Rhythm Fig. 2c
                                             
F|-----------------------------------------------|
C|-----------------------------------------------|
G|--------/5-------------------/5----------------|
C|--0---------------3p2--0---------------3/------|


                                                
F|-------------------------------------3-2-0-----|
C|---------5--------------------5------------3---|
G|------------------3h5--------------------------|
C|--5--------------------5-----------------------|




Rhythm Fig. 3a
                                          
F|-----------------------------3-----------------|
C|-----------------------------------------------|
G|--------/5------------1------------------------|
C|--0--------------------------------------------|


                                             
F|-----------------------------------------------|
C|----------5------------------------------------|
G|-----------------------1------0----------------|
C|--3/5--------------------------------3--5------|



Rhythm Fig. 3b
                                              
F|-----------------------------3---3--3-3--------|
C|-----------------------------------------------|
G|--------/5--------5\--1------------------------|
C|--0--------------------------------------------|


                                            
F|-----------------------------------------------|
C|----------5------------------------------------|
G|-----------------------------/5----------------|
C|--3/5--------------5\--0-----------------------|



Rhythm Fig. 4
                                           
F|-----------------------------/5----------------|
C|---------------1--0----------------------------|
G|-----------------------3-----------------------|
C|--1--------------------------------------------|


                                             
F|-----------------------------------------------|
C|-----------------------------3-----------------|
G|--6---------------------------------1--3-------|
C|---------------6--5---3------------------------|


                                            
F|-----------------------------------------------|
C|-----------------------------3-----------------|
G|-----------------------------------------------|
C|--1------------1--1---3-------------3/---------|


                                              
F|-----------------------------------------------|
C|-----------------------------------------------|
G|---------5-------------------------------------|
C|--0-------------------5*--7*--12*-----12\------|



Rhythm Fig. 5
                                              
F|-----------------------------------------------|
C|--3--2--0--------------------------------------|
G|-----------3-----------------------------------|
C|--------------0--------------------------------|




I WILL BE THERE 
Stanley/Kulick/Cuomo

[Rhy. Fig 1a]

[Rhy. Fig 1b]
Each and every day 
People turn away 
[Rhy. Fig 1c]
Change the things they feel 
Change the things they say 

[Rhy. Fig 1d]
We can never know 
Where our lives will lead 
[Rhy. Fig 1e]
Wherever you go 
Whenever you need 

[Rhy. Fig 2a]
I Will Be There 
Wanna be there 
I will hear you when you call 
Give you anything at all 
[Rhy. Fig 2b]
I Will Be There 
Anywhere 
Like a father to his son 

[Rhy. Fig 3a]
You are just a child 
All is yet to be 
[Rhy. Fig 3b]
Growing all the while 
Knowing when you leave 

[Rhy. Fig 2a]
I Will Be There 
Wanna be there 
Only blood will run so deep 
Seal the promise I will keep 
[Rhy. Fig 2c]
I Will Be There 
Anywhere 
Like a father to his son 
I can swear to only one 

[Rhy. Fig 4]
Time moves quickly as the years go by 
All these moments slip away 
When I'm gone and life will carry on 
You will know someway 

[Rhy. Fig 1b]
[Rhy. Fig 1c]
I will be there
[Rhy. Fig 2a] (2x)
I will be there

[Rhy. Fig 2a] (2x)
I Will Be There 
Wanna be there 
Only blood will run so deep 
Seal the promise I will keep 
I Will Be There 
Like a father to his son 
I must swear to only one

[Rhy. Fig 5]
Composição de Bruce Kulick / Paul Stanley
Colaboração e revisão:
  • peterson gusmão
471 exibições

0 comentários

Ver todos os comentários

Conseguiu tocar?

0 Tocaram 0 Ainda não

Grave um vídeo tocando I Will Be There e nos envie!

00:00 / 00:00
Outros vídeos desta música
Repetir Qualidade Automático
Outros vídeos desta música
00:00 / 00:00
Automático

Cifra Club Pro

Aproveite o Cifra Club com benefícios exclusivos e sem anúncios
Cifra Club Pro
Aproveite o Cifra Club com benefícios exclusivos e sem anúncios
OK