Breathe

Kittie

Composição de: Mercedes Lander / Morgan Lander
tom: C
|---------------------------------------------------------------------------|
|---------------------------------------------------------------------------|
|---------------------------------------------------------------------------|
|--------------------5-8-8-7------------------------------------------------|
|-0--0--0-0--000-000-3/6-6\5---0--0---0-0---000-000---3-6-5-----------------|
|-0--0--0-0--000-000-----------0--0---0-0---000-000---3-6-5-----------------|
        . .   . . .                    ..    ......   .....

  Pre chorus
|---------------------------------------------------------------------------|
|---------------------------------------------------------------------------|
|---------------------------------------------------------------------------|
|-----0h2--3p2-----0h2--3p2------3h5-3\2-----2h3-2p0------------------------|
|-0-0----------0-0-----------3-3---------2-2--------------------------------|
|-0-0----------0-0-----------3-3---------2-2--------------------------------|
  . .          . .            ..         . .
   Chorus ( listen to song for strumming patterns they are pretty simple)
|----------------------------------------------------------------------------|
|----------------------------------------------------------------------------|
|----------------------------------------------------------------------------|
|-7---5---------7--5---------------------------------------------------------|
|-5---3---5-----5--3--6------------------------------------------------------|
|---------0-----------6------------------------------------------------------|

    Slow breakdown
|---------------------------------------------------------------------------|
|---------------------------------------------------------------------------|
|---------------------------------------------------------------------------|
|----5----------------------------------------------------------------------|
|-0--3--6--0----------------------------------------------------------------|
|-0-----6--0----------------------------------------------------------------|

Bem galera, essa versão é do EP Never Again, ok!!
Página 1 / 1

Letras e título
Acordes e artista

resetar configurações
OK