In Dreams

Kittie

Composição de: Morgan Lander
tom: F
D|-----------------------|
A|-----------------------|
F|-----------------------|
C|-33333333-55555555--0~-|
G|-33333333-55555555--0~-|
C|-33333333-55555555--0~-|

D|----------------------------------------------------|-|-0-0-0-0-|
A|----------------------------------------------------|-|-3-3-3-3-|
F|----------------------------------------------------|x|-2-2-2-2-|
C|-33333333333333333337777-88888888888888888888888888-|4|-0-0-0-0-|
G|-33333333333333333337777-88888888888888888888888888-|-|---------|
C|-33333333333333333337777-88888888888888888888888888-|-|---------|
PM ....................... ..........................     . . . .
Every time I sleep wipe away all these tears
Living everyday in fear finding nothing but empty


D|--------------------------------------------------------------------------------|
A|--------------------------------------------------------------------------------|
F|--------------------------------------------------------------------------------|
C|-3333-5555-7777-0000--3333-5555-7777--3333-5555-7777-0000--33333333-55555555-0~-|
G|-3333-5555-7777-0000--3333-5555-------3333-5555-7777-0000--33333333-55555555-0~-|
C|-3333-5555-7777-0000--3333-5555-------3333-5555-7777-0000--33333333-55555555-0~-|
Wide awake and dreaming is this what it seems?
Close my eyes forever I’ll wake up


D|----------------------------------------------------|-|-0-0-0-0-|
A|----------------------------------------------------|-|-3-3-3-3-|
F|----------------------------------------------------|x|-2-2-2-2-|
C|-33333333333333333337777-88888888888888888888888888-|4|-0-0-0-0-|
G|-33333333333333333337777-88888888888888888888888888-|-|---------|
C|-33333333333333333337777-88888888888888888888888888-|-|---------|
PM ....................... ..........................     . . . .
Desperation strips me these last days have no been free



D|--------------------------------------------------------------------------------|
A|--------------------------------------------------------------------------------|
F|--------------------------------------------------------------------------------|
C|-3333-5555-7777-0000--3333-5555-7777--3333-5555-7777-0000--33333333-55555555-0~-|
G|-3333-5555-7777-0000--3333-5555-------3333-5555-7777-0000--33333333-55555555-0~-|
C|-3333-5555-7777-0000--3333-5555-------3333-5555-7777-0000--33333333-55555555-0~-|
Wide awake and dreaming is this what it seems?
Close my eyes forever I’ll wake up


And I see it in your eyes long gone
And I feel it in your heart long gone


D|--------------------------------------------------------------------------------|:|
A|--------------------------------------------------------------------------------|:|
F|--------------------------------------------------------------------------------|:|
C|-3333-5555-7777-0000--3333-5555-7777--3333-5555-7777-0000--33333333-55555555-0~-|:|
G|-3333-5555-7777-0000--3333-5555-------3333-5555-7777-0000--33333333-55555555-0~-|:|
C|-3333-5555-7777-0000--3333-5555-------3333-5555-7777-0000--33333333-55555555-0~-|:|
Wide awake and dreaming is this what it seems?
Close my eyes forever I’ll wake up
Página 1 / 1

Letras e título
Acordes e artista

resetar configurações
OK