Loveless

Kittie

Composição de: Morgan Lander
tom: B

D|------------------|-|
A|------------------|-|
F|------------------|x|
C|-5-5-5-5-3-5-3-1--|8|
G|-5-5-5-5-3-5-3-1--|-|
C|-5-5-5-5-3-5-3-1--|-|

D|----------------|-|----------------------|-|
A|----------------|-|----------------------|-|
F|----------------|x|----------------------|x|
C|-3-5-5-5-5-3-1--|4|-3-5-5-5-5-3-1--1111-6|4|
G|-3-5-5-5-5-3-1--|-|-3-5-5-5-5-3-1--1111-6|-|
C|-3-5-5-5-5-3-1--|-|-3-5-5-5-5-3-1--1111-6|-|
PM                                   .... .
And so we’re here again
I try to speak beg forgiveness
This fall from grace
Is in my hands


D|--------------------------------|-|
A|--------------------------------|-|
F|--------------------------------|x|
C|-5-5-5-5-3-5-3-1--5-5-5-3-5-3-1-|4|
G|-5-5-5-5-3-5-3-1--5-5-5-3-5-3-1-|-|
C|-5-5-5-5-3-5-3-1--5-5-5-3-5-3-1-|-|
I’ll stay away I’ll stay away


D|----------------|-|----------------------|-|
A|----------------|-|----------------------|-|
F|----------------|x|----------------------|x|
C|-3-5-5-5-5-3-1--|4|-3-5-5-5-5-3-1--1111-6|4|
G|-3-5-5-5-5-3-1--|-|-3-5-5-5-5-3-1--1111-6|-|
C|-3-5-5-5-5-3-1--|-|-3-5-5-5-5-3-1--1111-6|-|
PM                                   .... .
You’re so forgiving
I’m so wrong
Stinging tears burn resentment
All I have is in your possession


D|--------------------------------|-|
A|--------------------------------|-|
F|--------------------------------|x|
C|-5-5-5-5-3-5-3-1--5-5-5-3-5-3-1-|4|
G|-5-5-5-5-3-5-3-1--5-5-5-3-5-3-1-|-|
C|-5-5-5-5-3-5-3-1--5-5-5-3-5-3-1-|-|
I’ll stay away I’ll stay away


D|--------------------------------------|-|
A|--------------------------------------|-|
F|--------------------------------------|x|
C|-5-5-5-5--5-5-5-5----1-1-1-1--1-1-1-1-|4|
G|-5-5-5-5--5-5-5-5----1-1-1-1--1-1-1-1-|-|
C|-5-5-5-5--5-5-5-5----1-1-1-1--1-1-1-1-|-|
PM . . . .  . . . .    . . . . . . . .
And my heart does not bleed for anyone but my own
Am I loveless?


D|------------------|-|
A|------------------|-|
F|------------------|x|
C|-5-5-5-5-3-5-3-1--|8|
G|-5-5-5-5-3-5-3-1--|-|
C|-5-5-5-5-3-5-3-1--|-|
Página 1 / 1

Letras e título
Acordes e artista

resetar configurações
OK