Mouthfull Of Poison

Kittie

Composição de: Kittie
tom: C
Tuning:  Drop D then transposed down a whole step (C G C F A D)
(#) = Palm mute


D|-----------------|
A|-----------------|
F|-----------------| 00:02 – 00:15
C|-0000-1----------| 
G|-0000-1----------|
C|-0000-1--2/3-1/3-|

D|---------------|
A|---------------|
F|---------------| 00:15 – 00:30
C|-0000-1--------|
G|-0000-1--------|
C|-0000-1--5-4-3-|
 Palm mute ……………

D|--------------|
A|--------------|
F|--------------|
C|-1-2-1--5-4-3-| 00:30 – 00:58
G|-1-2-1--5-4-3-|
C|-1-2-1--5-4-3-|
     
D|----------------------------------------------------|
A|----------------------------------------------------|
F|----------------------------------------------------|
C|-0-0-0-0-1-0--0-0-0-0-1-0--0-0-0-0-1-0---2--3--1--3-|
G|-0-0-0-0-1-0--0-0-0-0-1-0--0-0-0-0-1-0---2--3--1--3-|00:58 – 01:23
C|-0-0-0-0-1-0--0-0-0-0-1-0--0-0-0-0-1-0---2--3--1--3-|

D|---------------|
A|---------------|
F|---------------| 01:23 – 01:27
C|-0000-1--------|
G|-0000-1--------|
C|-0000-1--5-4-3-|
 Palm mute …………

D|--------------|
A|--------------|
F|--------------|
C|-1-2-1--5-4-3-| 01:23 – 02:00
G|-1-2-1--5-4-3-|
C|-1-2-1--5-4-3-|

D|----------------------------------------------------|
A|----------------------------------------------------|
F|----------------------------------------------------|
C|-0-0-0-0-1-0--0-0-0-0-1-0--0-0-0-0-1-0---2--3--1--3-|
G|-0-0-0-0-1-0--0-0-0-0-1-0--0-0-0-0-1-0---2--3--1--3-|02:00– 02:24
C|-0-0-0-0-1-0--0-0-0-0-1-0--0-0-0-0-1-0---2--3--1--3-|

D|-----------------------------------------------------------------|
A|-----------------------------------------------------------------|
F|-----------------------------------------------------------------|
C|-0-0-0-0-1-0-0--0-0-0-0-1-0-0--0-0-0-0-1-0-0--0-0-0-0-1-0-2-3-1-3|
G|-0-0-0-0-1-0-0--0-0-0-0-1-0-0--0-0-0-0-1-0-0--0-0-0-0-1-0-2-3-1-3|
C|-0-0-0-0-1-0-0--0-0-0-0-1-0-0--0-0-0-0-1-0-0--0-0-0-0-1-0-2-3-1-3|
02:24 – 02:48

D|--------------------------------|
A|--------------------------------|
F|--------------------------------|
C|-1-0-1-0-1-0-1-0-1-0-1-0-2-3-1-3| 02:48 – 03:05
G|-1-0-1-0-1-0-1-0-1-0-1-0-2-3-1-3| (gradually get slower)
C|-1-0-1-0-1-0-1-0-1-0-1-0-2-3-1-3|

D|-----------------------|
A|-----------------------|
F|-----------------------|
C|-0-0-0-0-0-0-0-0-1-0-0-| 03:05 – 4:38
G|-0-0-0-0-0-0-0-0-1-0-0-| (add flanger effect then fade out)
C|-0-0-0-0-0-0-0-0-1-0-0-|
Página 1 / 1

Letras e título
Acordes e artista

resetar configurações
OK