Cifra Club

Mouthfull Of Poison

Kittie

Tab de baixo: Principal
intro 
F------------ 
C------------ 
G------------ 
C-0-0-0-0-1-- 
 
verse 
F------------------- 
C------------------- 
G------------------- 
C-0-0-0-0-1--4-3-2-- 
 
Chorus 
F--------------------------------------------------------------- 
C--------------------------------------------------------------- 
G--------------------------------------------------------------- 
C-0-0-0-0-0-1-0--0-0-0-0-0-1-0--0-0-0-0-0-1-0--3-3-4-4-2-2-4-4-- 
 
bridge 
F------------------------------------------------------------------ 
C------------------------------------------------------------------ 
G------------------------------------------------------------------ 
C-0-0-0-0-1-0-0-0-0-0-0-0-1-0-0-0-0-0-0-0-1-0-0-0-3-3-4-4-2-2-4-4-- 
 
F---------------------------------------- 
C---------------------------------------- 
G---------------------------------------- 
C-1-0--1-0--1-0--1-0--1-0--1-0--3-4-2-4-- 
 
outro 
F----------------------- 
C----------------------- 
G----------------------- 
C-0-0-0-0-0--0-1--0--0--
00:00 / 00:00
Outros vídeos desta música
Repetir
Outros vídeos desta música
Composição de Kittie
Colaboração e revisão:
  • Hellektra
273 exibições

0 comentários

Ver todos os comentários

Conseguiu tocar?

0 Tocaram 0 Ainda não

Grave um vídeo tocando Mouthfull Of Poison e nos envie!

00:00 / 00:00

Cifra Club Pro

Aproveite o Cifra Club com benefícios exclusivos e sem anúncios
Cifra Club Pro
Aproveite o Cifra Club com benefícios exclusivos e sem anúncios
OK