Oracle

Kittie

Composição de: Kittie
tom: F
D|-----------------------|
A|-----------------------|
F|-----------------------|
C|-2-2-1-1-1-------------| 00:00 - 00:11
G|-2-2-1-1-1-------------| 
C|-2-2-1-1-1-------------|

D|-----------------------|
A|-----------------------|
F|-----------------------|
C|-----------------------| 00:11 - 00:21
G|-----------------------| 
C|-2-2-1-1-1-------------|

D|---------------------------------|
A|---------------------------------|
F|---------------------------------|
C|-2-2-1-1-1--2-2-1-1-1------------| 00:21 - 00:32
G|-2-2-1-1-1--2-2-1-1-1------------| 
C|-2-2-1-1-1--2-2-1-1-1------------|
                  . . . 

D|-----------------------------|
A|-----------------------------|
F|-----------------------------|
C|-1-0-1-0-2-0-----------------| 00:32 - 00:39
G|-1-0-1-0-2-0-----------------| 
C|-1-0-1-0-2-0-----------------|
   . . . . . .

D|---------------------------------|
A|---------------------------------|
F|---------------------------------|
C|-2-2-1-1-1--2-2-1-1-1------------| 00:39 - 00:52
G|-2-2-1-1-1--2-2-1-1-1------------| 
C|-2-2-1-1-1--2-2-1-1-1------------| 
                  . . . 

D|-----------------------------|
A|-----------------------------|
F|-----------------------------|
C|-1-0-1-0-2-0-----------------| 00:52 - 01:09
G|-1-0-1-0-2-0-----------------| 
C|-1-0-1-0-2-0-----------------|
   . . . . . . 

D|---------------------------------------|
A|---------------------------------------|
F|---------------------------------------|
C|-------5-----4---------6-6-6-6-6-------| 01:09 - 01:32
G|-0-0-0-3-0-0-2-0-0-0-0-4-4-4-4-4-------| 
C|-0-0-0---0-0---0-0-0-0-----------------|

D|---------------------------------|
A|---------------------------------|
F|---------------------------------|
C|-2-2-1-1-1--2-2-1-1-1------------| 01:32 - 01:50
G|-2-2-1-1-1--2-2-1-1-1------------| 
C|-2-2-1-1-1--2-2-1-1-1------------| 

D|-----------------------|
A|-----------------------|
F|-----------------------|
C|-----------------------| 01:50 - 01:59
G|-----------------------| 
C|-2-2-1-1-1-------------|

D|-----------------------|
A|-----------------------|
F|-----------------------|
C|-----------------------| 01:59 - 02:00
G|-----------------------| 
C|-2-2-------------------|

Página 1 / 1

Letras e título
Acordes e artista

resetar configurações
OK