Paperdoll Heave Remix

Kittie

tom: C
Tuning: 
 
6=C  3=F 
5=G  2=A 
4=C  1=D 

Cuidado com o abafado

Verso
d|-------------------------|----------| 
A|-------------------------|----------| 
F|-------------------------|----------| 
C|-2-2-2-2-2-2-3-3-3/5-5-3-|----------| 
G|-2-2-2-2-2-2-3-3-3/5-5-3-|----------| 
C|-2-2-2-2-2-2-3-3-3/5-5-3-|----------| 
 

Refrão
d|--------------------------|---------| 
A|--------------------------|---------| 
F|--------------------------|---------| 
C|-4/6-6-6-0--4/6-6-6-0-7-7-|---------| 
G|-4/6-6-6-0--4/6-6-6-0-7-7-|---------| 
C|-4/6-6-6-0--4/6-6-6-0-7-7-|---------| 
 

Outro
d|-------------------------|----------| 
A|-------------------------|----------| 
F|-------------------------|----------| 
C|-3-2-2-2-3-2-2-2-3-3-3-3-|----------| 
G|-3-2-2-2-3-2-2-2-3-3-3-3-|----------| 
C|-3-2-2-2-3-2-2-2-3-3-3-3-|----------| 
 
Página 1 / 1

Letras e título
Acordes e artista

resetar configurações
OK