Raven

Kittie

Composição de: Kittie
tom: D
E|-------------| 
B|-------------| 
G|-------------| 
D|-0-0-1-1-----| 
A|-0-0-1-1-----| 
D|-0-0-1-1-----| 
 
Repeat 4 times 
 
 
E|----------------------------------------------| 
B|----------------------------------------------| 
G|----------------------------------------------| 
D|-1-0-0-0----1-0-0-0----1-0-0-0----1-0-0-0-1-1-| 
A-1-0-0-0-3--1-0-0-0-3--1-0-0-0-3--1-0-0-0-1-1-| 
D|-1-0-0-0----1-0-0-0----1-0-0-0----1-0-0-0-1-1-| 
 
repeat this also 4 times 
 
 
this part is after the bassloop 
 
E|------------------------| 
B|------------------------| 
G|------------------------| 
D|-3-0-0-3-1-0-0----------| 
A|-3-0-0-3-1-0-0----------| 
D|-3-0-0-3-1-0-0----------| 
 
repeat this 8 times 
 
 
E|----------------------------------------------| 
B|----------------------------------------------| 
G|----------------------------------------------| 
D|-1-0-0-0----1-0-0-0----1-0-0-0----1-0-0-0-1-1-| 
A-1-0-0-0-3--1-0-0-0-3--1-0-0-0-3--1-0-0-0-1-1-| 
D|-1-0-0-0----1-0-0-0----1-0-0-0----1-0-0-0-1-1-| 
 
repeat this also 4 times 
 
 
E|------------------------| 
B|------------------------| 
G|------------------------| 
D|-3-0-0-3-1-0-0----------| 
A|-3-0-0-3-1-0-0----------| 
D|-3-0-0-3-1-0-0----------| 
 
repeat this 8 times 
 
 
E|------------------------| 
B|------------------------| 
G|------------------------| 
D|-0-0-0-0-0--0-0-0-0--0--| 
A-0-0-0-0-0--0-0-0-0--0--| 
D|-0-0-0-0-0--0-0-0-0--0--| 
 
repeat this 12 times 
 
 
E|------------------------| 
B|------------------------| 
G|------------------------| 
D|-3-0-0-3-1-0-0----------| 
A|-3-0-0-3-1-0-0----------| 
D|-3-0-0-3-1-0-0----------| 
 
repeat this 8 times 
 
 
E|-----------------------------| 
B|-----------------------------| 
G|-----------------------------| 
D|-0-0-0--0-0-0--0-0-0-0-1-0-0-| 
A-0-0-0--0-0-0--0-0-0-0-1-0-0-| 
D|-0-0-0--0-0-0--0-0-0-0-1-0-0-| 
 
repeat 4 times 
 
 
E|-----------------------------| 
B|-----------------------------| 
G|-----------------------------| 
D|-1-0-1--1-0-1--1-0-1-3-1-0-1-| 
A-1-0-1--1-0-1--1-0-1-3-1-0-1-| 
D|-1-0-1--1-0-1--1-0-1-3-1-0-1-| 
 
and repeat this 4 times 
 
 
a--5-| 

--------------------------------------------------------------------------------

Página 1 / 1

Letras e título
Acordes e artista

resetar configurações
OK