Sweet Destruction Interlude

Kittie

Composição de: Mercedes Lander / Morgan Lander
tom: Bb
gtr 1 intro              chorus (repeat some)
D|-----------------------|-------|
A|-----------------------|-------|
F|-----------------------|-------|
C|-----------------------|-8--7--|
G|-3-3-3-3-3-3-3-3-3-3-3-|-8--7--|
C|-3-3-3-3-3-3-3-3-3-3-3-|-8--7--|

gtr 2 intro/chorus
D|-1---10---13-----------|-------|
A|-1---10---15-----------|-------|
F|-3---10---15-----------|-------|
C|-----------------------|-------|
G|-----------------------|-------|
C|-----------------------|-------|
Página 1 / 1

Letras e título
Acordes e artista

resetar configurações
OK